Song name
# A B C D E F G H I J K L M N O P Q R S T U V W X Y Z

All Time Low - Thanks To You tab

Thanks To You Tab
*****************

Guitar 1

Riff(Play 2x):
E|----------------------------------------------|
B|----------------------------------------------|
G|----------------------------------------------|
D|-11h12p11h12p11----11h12p11-------------------|
A|----------------9------------9----------------|
E|----------------------------------------------|

E|----------------------------------------------|
B|----------------------------------------------|
G|----------------------------------------------|
D|-11h12p11h12p11----11h12p11-------------------|
A|----------------9------------9-12-------------|
E|----------------------------------------------|

E|----------------------------------------------|
B|----------------------------------------------|
G|----------------------------------------------|
D|-11h12p11h12p11----11h12p11-------------------|
A|----------------9------------9----------------|
E|----------------------------------------------|

E|----------------------------------------------|
B|----------------------------------------------|
G|----------------------------------------------|
D|-14-12----14-12----14-12----14-12-------------|
A|-------12-------12-------12-------------------|
E|----------------------------------------------|

Verse(Play 2x):
E|-------------------------------------------------------|
B|-------------------------------------------------------|
G|-7-7-7-7-9-7--7-7-7-7-6-7--7-7-7-7-6-7-7--x-x-7--x-x-9-|
D|-7-7-7-7-9-7--7-7-7-7-6-7--7-7-7-7-6-7-7--x-x-7--x-x-9-|
A|-5-5-5-5-7-5--5-5-5-5-4-5--5-5-5-5-4-5-5--x-x-5--x-x-7-|
E|-------------------------------------------------------|

Prechorus:
E|-------------------------------------------------------|
B|-------------------------------------------------------|
G|-------------------------------------------------------|
D|-2-2-2-2-2-2-2-2--5-5-5-5--4-4-4-4--2-2-2-2-2-2-2-2--7-|
A|-2-2-2-2-2-2-2-2--5-5-5-5--4-4-4-4--2-2-2-2-2-2-2-2--7-|
E|-2-2-2-2-2-2-2-2--5-5-5-5--4-4-4-4--2-2-2-2-2-2-2-2--7-|

Chorus(Strum pattern is easy to pick up):
E|-------------------------|
B|-------------------------|
G|-7--4-------x-x-7--x-x-9-| x2
D|-7--4--4--5-x-x-7--x-x-9-|
A|-5--2--4--5-x-x-5--x-x-7-|
E|-------4--5--------------|

Riff
Verse
Chorus

Bridge:
E|---------------------------------|
B|---------------------------------|
G|---------------------------------| x4
D|---------------------------------|
A|---------------------------------|
E|-0-0-0-4-0-0-5-0-0-7-0-0-9-11-12-|

E|------------------------------------------------------------------|
B|------------------------------------------------------------------|
G|----------------------------2-4-----------------------------------|
D|----------------2-----4---5--------------------------------4-5-7--|
A|--2---2-2-5-2-2---2-2---2----------0---0-0-4-0-0-5-0-0-7-0--------|
D|------------------------------------------------------------------|

E|---------------------------------|
B|---------------------------------|
G|---------------------------------| x2
D|---------------------------------|
A|---------------------------------|
E|-0-0-0-4-0-0-5-0-0-7-0-0-9-11-12-|

E|------------------------------------------------------------------|
B|------------------------------------------------------------------|
G|----------------------------2-4-----------------------------------|
D|----------------2-----4---5--------------------------------4-5-7--|
A|--2---2-2-5-2-2---2-2---2----------0---0-0-4-0-0-5-0-0-7-0--------|
D|------------------------------------------------------------------|

Start by palm muting then gradually get louder:
E|---
B|---
G|--- x13
D|-7-
A|-7-
E|-7-

Chorus

Guitar 2

Intro:
E|---------------------------------------------------------------------|
B|---------------------------------------------------------------------|
G|--------------------------------------------------------x-x-7--x-x-9-| x2
D|-0--0--0-0-0-0---9--9--9-9-9-9---4--4--4-4-4-4---5--5---x-x-7--x-x-9-|
A|-0--0--0-0-0-0---9--9--9-9-9-9---4--4--4-4-4-4---5--5---x-x-5--x-x-7-|
E|-0--0--0-0-0-0---9--9--9-9-9-9---4--4--4-4-4-4---5--5----------------|

Chorus:
E|--------14----------14----------14----------14----------14----------14----------15-----|
B|--15----------15----------15----------15----------14----------14----------15-----------|
G|-----14----14----14----14----16----16----16----16----14----14----14----14----16----16--|
D|---------------------------------------------------------------------------------------|
A|---------------------------------------------------------------------------------------|
D|---------------------------------------------------------------------------------------|
Tap to rate this tab
 
# A B C D E F G H I J K L M N O P Q R S T U V W X Y Z