Song name
# A B C D E F G H I J K L M N O P Q R S T U V W X Y Z

All Time Low - Oh Calamity tab

Hi! there once again, i finished this tab of this great song, as alwways free to 
leave your comments.

Tunning Standard
      Eb   D  Bb   F   Gm   C
|------x---x---x---x----x---x---------------------|
|------x---x---x---x----x---x---------------------|
|------8---7---3---x----x---5---------------------|
|------8---7---3---3----5---5---------------------|
|------6---5---1---3----5---3---------------------|
|------------------1----3-------------------------|




*there note can you change by one hammer-on till 5/7 fret on the same string

INTRO
|-----------------------------------------------|
|---3h4----4p3---------3*-----------------------|
|-------5------3---3h5---------3p2h3-3p2-2--2h3-|  x2
|----------------5-------------------------3----|
|-----------------------------------------------|
|-----------------------------------------------|

When I was younger I was certain
That I'd be fine without a queen
Just a king inside his castle
With an ocean in between

|-------------------------------------------------|
|---3h4----4p3------------------------------------|
|-------5------3---3h5/7-7-7h8-7-5--5h7-----------|
|----------------5--------------------------------|
|-------------------------------------------------|
|-------------------------------------------------|

Now all I do is sit
And count the miles from you to me


|-----------------------------------------------|
|-------5-----5-----------------4----4-3--------|  the last part(3,4,3), im not
|---5-4---5-4-------5-3-5---5-3----3------------|  sure the song´s not clear
|-----------------------------------------------|
|-----------------------------------------------|
|-----------------------------------------------|

Oh, calamity


|-----------------------------------------------|
|---3h4----4p3---------3*-----------------------|
|-------5------3---3h5---------3p2h3-3p2-2--2h3-| x2
|----------------5-------------------------3----|
|-----------------------------------------------|
|-----------------------------------------------|

We get older by the hour
Watch the changes from afar
Keep forgetting to remember
Where we've been is who we are
|-----------------------------------------------|
|---3h4----4p3----------------------------------|
|-------5------3---3h5/7-7-7h8-7-5--5h7--5------|
|----------------5------------------------------|
|-----------------------------------------------|
|-----------------------------------------------|
Now all I do is wonder
Why we ever set the scene
|-----------------------------------------------|
|-------5-----5-----------------4----4-3--------|  the last part(3,4,3), im not
|---5-3---5-3-------5-3-5---5-3----3------------|  sure the song´s not clear
|-----------------------------------------------|
|-----------------------------------------------|
|-----------------------------------------------|
Oh, calamity



      Eb               Bb      F
It's such a shame that we play strangers
Gm     D  Eb          Bb      F
No act to change what we've become
           Gm      Eb        Bb            D            Gm
Damn, it's such a shame that we've built a wreck out of me

|-3-3-3-3-5-5-5-5-6-6-6-6-8-8-8-8---------------|
|-----------------------------------------------|
|-----------------------------------------------|
|-----------------------------------------------|
|-----------------------------------------------|
|-----------------------------------------------|
        C
Oh, calamity

|-3-3-3-3-5-5-5-5-6-6-6-6-5-5-5-5---------------|
|-----------------------------------------------|
|-----------------------------------------------|
|-----------------------------------------------|
|-----------------------------------------------|
|-----------------------------------------------|
        Eb   D
Oh, calamity



|-----------------------------------------------|
|---3h4----4p3---------3*-----------------------|
|-------5------3---3h5---------3p2h3-3p2-2--2h3-| x2
|----------------5-------------------------3----|
|-----------------------------------------------|
|-----------------------------------------------|
I'll remember nights alone
And waking up to dial tones
Always found my greatest moments
In the sound of your hello's
|---------------------------------------|
|---------------------------------------|
|-------3---3h5--5/7-7-7-8-7-5h7-5------|  play this when start with "recall"
|---------5-----------------------------|
|---------------------------------------|
|---------------------------------------|
Now I struggle to recall
The reasons you would come to leave
|------------------------------------------------------|
|-------5--------------4-----8-6-8-8-8-/11-11-11-11-11-|
|---5-3------5-3-5--5-3--------------------------------|
|------------------------------------------------------|
|------------------------------------------------------|
|------------------------------------------------ -----|
Oh, calamity



      Eb               Bb      F
It's such a shame that we play strangers
Gm     D  Eb          Bb      F
No act to change what we've become
           Gm      Eb        Bb            D            Gm
Damn, it's such a shame that we've built a wreck out of me

|-3-3-3-3-5-5-5-5-6-6-6-6-8-8-8-8---------------|
|-----------------------------------------------|
|-----------------------------------------------|
|-----------------------------------------------|
|-----------------------------------------------|
|-----------------------------------------------|
        C
Oh, calamity

|-3-3-3-3-5-5-5-5-6-6-6-6-5-5-5-5---------------|
|-----------------------------------------------|
|-----------------------------------------------|
|-----------------------------------------------|
|-----------------------------------------------|
|-----------------------------------------------|
        Eb   D
Oh, calamity


SOLO(i tried to put the time to play on this tab, but hear the songs to know what am sayin)
|--1h3---1-3/6-5-3--3-3-3h5/6-------------------|
|----------------------------3---3h4p3----------|
|-----------------------------------------------|  x2
|-----------------------------------------------|
|-----------------------------------------------|
|-----------------------------------------------|



JUST THIS PART PLAY IT LIKE A NORMAL CHORD
     Cm               Eb
If I catch you on the corner
        Gm              F
Will you even know it's me?
       Cm               Eb
Will I look familiar to you?
   Gm             F
Do you offer me a seat?
|-----------------------------------------------|
|---3h4----4p3---------3*-----------------------|
|-------5------3---3h5---------3p2h3-3p2-2------|
|----------------5------------------------------|
|-----------------------------------------------|
|-----------------------------------------------|
Can we find a new beginning?
Do you turn the other cheek?
|------------------------------------------------------------|
|-------5--------------4-----8-6-8-8-8-/11-11-11-11-11-10-10-|
|---5-3------5-3-5--5-3--------------------------------------|
|------------------------------------------------------------|
|------------------------------------------------------------|
|------------------------------------------------ -----------|
Oh, calamity


                               F
It's such a shame that we play strangers
Gm     D  Eb          Bb      F
No act to change what we've become
           Gm     Eb         Bb      F
Damn, it's such a shame that we play strangers
     Gm   Eb          Bb    F
No act to change what we've become
Gm     D          Eb          Bb         D              Gm
Damn, it's such a shame that we've built a wreck out of me

|-3-3-3-3-5-5-5-5-6-6-6-6-8-8-8-8---------------|
|-----------------------------------------------|
|-----------------------------------------------|
|-----------------------------------------------|
|-----------------------------------------------|
|-----------------------------------------------|
        C
Oh, calamity

|-3-3-3-3-5-5-5-5-6-6-6-6-5-5-5-5---------------|
|-----------------------------------------------|
|-----------------------------------------------|
|-----------------------------------------------|
|-----------------------------------------------|
|-----------------------------------------------|
        Eb   D
Oh, calamity




|--1h3---1-3/6-5-3--3-3-3h5/6-------------------|
|----------------------------3---3h4p3----------|
|-----------------------------------------------|
|-----------------------------------------------|
|-----------------------------------------------|
|-----------------------------------------------|
Oh, calamity

|--1h3---1-3/6-5-3-----5-6~~--------------------|
|-----------------------------------------------|
|-----------------------------------------------|
|-----------------------------------------------|
|-----------------------------------------------|
|-----------------------------------------------|
Come back to me


That´s it, if you see something wrong, leave in your comment, and thanks for watching
Tap to rate this tab
# A B C D E F G H I J K L M N O P Q R S T U V W X Y Z