Song name
# A B C D E F G H I J K L M N O P Q R S T U V W X Y Z

All Time Low - The Irony Of Choking On A Lifesaver tab

Hi. 
I'm not very sure of how they play the bridge, the picking is very quiet, but I 
tried to get it to sound as right as possible. If you know it better please tell 
me so that I can change it. 

Standard tuning. 

Have a nice time playing!


Intro

Guitar 1

e|--14---------14-------------------14------------------|
B|----11---------11------12/11/12-----11----------------|
G|------11---------11-------------------11----13/11/13--|
D|------------------------------------------------------|
A|------------------------------------------------------|
E|------------------------------------------------------|

e|--14---------14-------------------14------------------|
B|----11---------11------12/11/12-----11----------------|
G|------11---------11-------------------11----13/11-----|
D|------------------------------------------------------|
A|------------------------------------------------------|
E|------------------------------------------------------|


Guitar 2

e|--------------------------------------------------------|
B|--------------------------------------------------------|
G|---------4/3/4-----------------8-888---------8-888------|
D|--4-444--4/3/4--4-444--6/4/6---8-888--9/8/8--8-888--6/4-| X2
A|--4-444--2/1/2--4-444--6/4/6---6-666--9/8/9--6-666--6/4-|
E|--2-222---------2-222--4/2/4----------7/6/7---------4/2-|




Vers 1

e|----------------------------------|
B|----------------------------------|
G|------4/3/4--------8---------8----|
D|-6/4—-4/3/4-—4--6--8--9/8/9--8--4-|  X2
A|-6/4—-2/1/2--4—-6-—6--9/8/9--6--4-|
E|-4/2---------2--4-----7/6/7-----2-|
(Slide on ”emotion”, listen to the song and you'll understand)


”But you're always out to get me”
e|------|
B|------|
G|------|
D|-6--9-|
A|-6--9-|
E|-4--7-|




Chorus

Guitar 1

e|--14---------14-------------------14------------------|
B|----11---------11------12/11/12-----11----------------|
G|------11---------11-------------------11----13/11/13--|
D|------------------------------------------------------|
A|------------------------------------------------------|

E|------------------------------------------------------|
e|--14---------14-------------------14------------------|
B|----11---------11------12/11/12-----11----------------|
G|------11---------11-------------------11----13/11-----|
D|------------------------------------------------------|
A|------------------------------------------------------|
E|------------------------------------------------------|

e|--14---------14-------------------14------------------|
B|----11---------11------12/11/12-----11----------------|
G|------11---------11-------------------11----13/11/13--|
D|------------------------------------------------------|
A|------------------------------------------------------|

E|------------------------------------------------------|
e|--14---------14-------------------14------------------|
B|----11---------11------12/11/12-----11-------12-------|
G|------11---------11-------------------11--------------|
D|------------------------------------------------------|
A|------------------------------------------------------|
E|------------------------------------------------------|

Guitar 2

e|--------------------------------------------------------|
B|--------------------------------------------------------|
G|---------4/3/4-----------------8-888---------8-888------|
D|--4-444--4/3/4--4-444--6/4/6---8-888--9/8/8--8-888--6/4-|
A|--4-444--2/1/2--4-444--6/4/6---6-666--9/8/9--6-666--6/4-|
E|--2-222---------2-222--4/2/4----------7/6/7---------4/2-|

e|--------------------------------------------------------|
B|--------------------------------------------------------|
G|---------4/3/4-----------------8-888---------8-888------|
D|--4-444--4/3/4--4-444--6/4/6---8-888--9/8/8--8-888---9--|
A|--4-444--2/1/2--4-444--6/4/6---6-666--9/8/9--6-666---9--|
E|--2-222---------2-222--4/2/4----------7/6/7----------7--|




”Nanananananan...”-part

Both guitars

e|----------------------------------------------------------|
B|----------------------------------------------------------|
G|---------4/3/4-----------------8-888---------8-888--------|
D|--4-444--4/3/4--4-444--6/4/6---8-888--9/8/8--8-888--6/4/6-|
A|--4-444--2/1/2--4-444--6/4/6---6-666--9/8/9--6-666--6/4/6-|
E|--2-222---------2-222--4/2/4----------7/6/7---------4/2/4-|




Vers 2

e|-------------------------------|
B|-------------------------------|
G|---4/3/4--------8---------8----|
D|-—-4/3/4-—4--6--8--9/8/9--8--4-|  X2
A|-—-2/1/2—-4—-6-—6--9/8/9--6--4-|
E|----------2--4-----7/6/7-----2-|


”But you're always out to get me”
e|------|
B|------|
G|------|
D|-6--9-|
A|-6--9-|
E|-4--7-|




Chorus 2

Guitar 1

e|--14---------14-------------------14------------------|
B|----11---------11------12/11/12-----11----------------|
G|------11---------11-------------------11----13/11/13--|
D|------------------------------------------------------|
A|------------------------------------------------------|
E|------------------------------------------------------|

e|--14---------14-------------------14------------------|
B|----11---------11------12/11/12-----11----------------|
G|------11---------11-------------------11----13/11-----|
D|------------------------------------------------------|
A|------------------------------------------------------|
E|------------------------------------------------------|

e|--14---------14-------------------14------------------|
B|----11---------11------12/11/12-----11----------------|
G|------11---------11-------------------11----13/11/13--|
D|------------------------------------------------------|
A|------------------------------------------------------|
E|------------------------------------------------------|

e|--14---------14-------------------14------------------|
B|----11---------11------12/11/12-----11-------12-------|
G|------11---------11-------------------11--------------|
D|------------------------------------------------------|
A|------------------------------------------------------|
E|------------------------------------------------------|

Guitar 2

e|--------------------------------------------------------|
B|--------------------------------------------------------|
G|---------4/3/4-----------------8-888---------8-888------|
D|--4-444--4/3/4--4-444--6/4/6---8-888--9/8/8--8-888--6/4-|
A|--4-444--2/1/2--4-444--6/4/6---6-666--9/8/9--6-666--6/4-|
E|--2-222---------2-222--4/2/4----------7/6/7---------4/2-|

e|--------------------------------------------------------|
B|--------------------------------------------------------|
G|---------4/3/4-----------------8-888---------8-888------|
D|--4-444--4/3/4--4-444--6/4/6---8-888--9/8/8--8-888---9--|
A|--4-444--2/1/2--4-444--6/4/6---6-666--9/8/9--6-666---9--|
E|--2-222---------2-222--4/2/4----------7/6/7----------7--|




”Nanananananan...”-part

Both guitars

e|----------------------------------------------------------|
B|----------------------------------------------------------|
G|---------4/3/4-----------------8-888---------8-888--------|
D|--4-444--4/3/4--4-444--6/4/6---8-888--9/8/8--8-888--6/4/6-|
A|--4-444--2/1/2--4-444--6/4/6---6-666--9/8/9--6-666--6/4/6-|
E|--2-222---------2-222--4/2/4----------7/6/7---------4/2/4-|





Bridge

e|-----------------------------------------------|
B|-----------------------------------------------|
G|---------3----------------------3--------------|
D|-----4-----4----------------4-----4------------|
A|---4---4-----4--2/1/2-----4---4-----4----------|
E|-2----------------------2--------------4/2/4---|


e|-----------------------------------|
B|---------8-----------------8-------|
G|-----8-----8-----------8-----8-----|
D|---8---8-------------8---8---------|  These two parts X2
A|-6-----------------6-----------8/6-|
E|-------------7/6/7-----------------|


”But you're always out to get me”
e|------|
B|------|
G|------|
D|-6--9-|
A|-6--9-|
E|-4--7-|





Chorus 3

Guitar 1

e|--14---------14-------------------14------------------|
B|----11---------11------12/11/12-----11----------------|
G|------11---------11-------------------11----13/11/13--|
D|------------------------------------------------------|
A|------------------------------------------------------|
E|------------------------------------------------------|

e|--14---------14-------------------14------------------|
B|----11---------11------12/11/12-----11----------------|
G|------11---------11-------------------11----13/11-----|
D|------------------------------------------------------|
A|------------------------------------------------------|
E|------------------------------------------------------|

e|--14---------14-------------------14------------------|
B|----11---------11------12/11/12-----11----------------|
G|------11---------11-------------------11----13/11/13--|
D|------------------------------------------------------|
A|------------------------------------------------------|
E|------------------------------------------------------|

e|--14---------14-------------------14------------------|
B|----11---------11------12/11/12-----11-------12-------|
G|------11---------11-------------------11--------------|
D|------------------------------------------------------|
A|------------------------------------------------------|
E|------------------------------------------------------|

Guitar 2

e|--------------------------------------------------------|
B|--------------------------------------------------------|
G|---------4/3/4-----------------8-888---------8-888------|
D|--4-444--4/3/4--4-444--6/4/6---8-888--9/8/8--8-888--6/4-|
A|--4-444--2/1/2--4-444--6/4/6---6-666--9/8/9--6-666--6/4-|
E|--2-222---------2-222--4/2/4----------7/6/7---------4/2-|

e|--------------------------------------------------------|
B|--------------------------------------------------------|
G|---------4/3/4-----------------8-888---------8-888------|
D|--4-444--4/3/4--4-444--6/4/6---8-888--9/8/8--8-888---9--|
A|--4-444--2/1/2--4-444--6/4/6---6-666--9/8/9--6-666---9--|
E|--2-222---------2-222--4/2/4----------7/6/7----------7--|




”Nanananananan...”-part

Both guitars

e|----------------------------------------------------------|
B|----------------------------------------------------------|
G|---------4/3/4-----------------8-888---------8-888--------|
D|--4-444--4/3/4--4-444--6/4/6---8-888--9/8/8--8-888--6/4/6-|
A|--4-444--2/1/2--4-444--6/4/6---6-666--9/8/9--6-666--6/4/6-|
E|--2-222---------2-222--4/2/4----------7/6/7---------4/2/4-|


e|-----------------------------------------------------------|
B|-----------------------------------------------------------|
G|---------4/3/4-----------------8-888---------8-888--88-----|
D|--4-444--4/3/4--4-444--6/4/6---8-888--9/8/8--8-888--88-9/4-|
A|--4-444--2/1/2--4-444--6/4/6---6-666--9/8/9--6-666--66-9/4-|
E|--2-222---------2-222--4/2/4----------7/6/7------------7/2-|

If you listen closely to the last chords they actually do a slide at the very end. 
It's hard to wite exactly when so listen and see if you can figure it out.
Tap to rate this tab
# A B C D E F G H I J K L M N O P Q R S T U V W X Y Z