Song name
# A B C D E F G H I J K L M N O P Q R S T U V W X Y Z

All Time Low - Girls A Straight-up Hustler tab

Artist: All Time Low
Song: "The Girl's A Straight Up Hustler"
Album: The Party Scene
Record Label: Emerald Moon Records

Tuning: Standard (eADGBE)

[Into/Verse]
|-----------------------------------|
|-------8--8--8--8----3--3---3--3---|
|-----0--0--0--0-----0--0---0--0----|
|-----------------------------------|
|---7--7--6--6------------3--3------|
|-----------------3--3--------------|

|------------------------------------|
|-------8--8--8--8----3--3--3--3--3--|
|-----0--0--0--0-----0--0--0--0--0---|
|------------------------------------|
|---7--7--6--6-----------------------|
|-----------------3--3---2--2--0-----|


[Chorus]
|-x--x--|-------------------------------------------|
|-x--x--|--------------------------------------[x2]-|
|-x--x--|-----------7-7-7-7--5-5-5-5--7-7-7-7-------|
|-x--x--|--5-5-5-5--7-7-7-7--5-5-5-5--7-7-7-7-------|
|-x--x--|--5-5-5-5--5-5-5-5--3-3-3-3--5-5-5-5-------|
|-x--x--|--3-3-3-3----------------------------------|


[Interlude]
|-----------------------------------|
|-----8--------8-------8-------8----|
|---0---0----0---0---0---0---0---0--|
|-----------------------------------|
|-7--------6------------------------|
|------------------7-------8--------|

|---------------------|
|-----8--------8------|
|---0---0----0---0----|
|---------------------|
|-7--------6----------|
|------------------3--|

|-----------------------------------------------|
|-----------------------------------------------|
|---9-9-9-9--12-12-12-12--5-5-5-5--12-12-12-12--|
|---9-9-9-9---x--x--x--x--5-5-5-5---x--x--x--x--|
|---7-7-7-7--10-10-10-10--7-7-7-7--10-10-10-10--|
|-----------------------------------------------|
PM: - - - -               - - - -

|--------------------------------------------|
|--------------------------------------------|
|------------7-7-7-7---------------7-7-7-7---|
|---9-9-9-9--x-x-x-x--10-10-10-10--x-x-x-x---|
|---9-9-9-9--5-5-5-5--10-10-10-10--5-5-5-5---|
|---7-7-7-7------------8--8--8--8------------|
PM: - - - -            -  -  -  -

|-----------------------------------------------------------|
|-----------------------------------------------------------|
|---9-9-9-9--12-12-12-12--5-5-5-5--12-12-12-12--------------|
|---9-9-9-9---x--x--x--x--5-5-5-5---x--x--x--x--5-5--5-5-5--|
|---7-7-7-7--10-10-10-10--7-7-7-7--10-10-10-10--5-5--5-5-5--|
|-----------------------------------------------3-3--3-3-3--|
PM: - - - -               - - - -               - -  - - -

(The third part to the interlude is basically this part, but you just play the palm 
(1st guitar) part open)


[Chorus]
|-x--x--|-------------------------------------------|
|-x--x--|--------------------------------------[x2]-|
|-x--x--|-----------7-7-7-7--5-5-5-5--7-7-7-7-------|
|-x--x--|--5-5-5-5--7-7-7-7--5-5-5-5--7-7-7-7-------|
|-x--x--|--5-5-5-5--5-5-5-5--3-3-3-3--5-5-5-5-------|
|-x--x--|--3-3-3-3----------------------------------|


[Second Interlude]
"..She gets what she wants....get out while you can or she'll tear.."

|------------------------------------------------|
|------------------------------------------[x5]--|
|--9-9-9-9--7-7-7-7------------------------------|
|--9-9-9-9--7-7-7-7--9-9-9-9--10-10-10-10--------|
|--7-7-7-7--5-5-5-5--7-7-7-7--10-10-10-10--------|
|--------------------7-7-7-7---8--8--8--8--------|


[Chorus]
|-x--x--|-------------------------------------------|
|-x--x--|--------------------------------------[x2]-|
|-x--x--|-----------7-7-7-7--5-5-5-5--7-7-7-7-------|
|-x--x--|--5-5-5-5--7-7-7-7--5-5-5-5--7-7-7-7-------|
|-x--x--|--5-5-5-5--5-5-5-5--3-3-3-3--5-5-5-5-------|
|-x--x--|--3-3-3-3----------------------------------|


[Outro]
|-----------------------------------|
|-----8--------8-------8-------8----|
|---0---0----0---0---0---0---0---0--|
|-----------------------------------|
|-7--------6------------------------|
|------------------7-------8--------|

|---------------------[x2]--|
|-----8--------8------------|
|---0---0----0---0----------|
|---------------------------|
|-7--------6----------------|
|------------------3--------|
Tap to rate this tab
 
# A B C D E F G H I J K L M N O P Q R S T U V W X Y Z