Song name
# A B C D E F G H I J K L M N O P Q R S T U V W X Y Z

All Time Low - Running From Lions tab

-------------------------------------------------------------------------------
			     Running From Lions - All Time Low
-------------------------------------------------------------------------------

Tuning: Standard

Intro 1
e|--------------------|
B|--------------------|
G|-666-7-XX-----------|
D|-666-7-XX-777-9999--| x4
A|-444-5-XX-777-9999--|
E|----------555-7777--|

Intro 2
e|--------------------|
B|-9-9-11-11----------|
G|----------9-9-11-11-| x4
D|--------------------|
A|--------------------|
E|--------------------|

Intro 3
e|------------|
B|-12-9-10--9-|
G|--------11--| x4
D|------------|
A|------------|
E|------------|

Verse
e|--------------------------------------------------------------------------------------|
B|--------------------------------------------------------------------------------------|
G|-6-----666-666-6-666666666666-6-6-666666666666-6-6-666666666666-6-6-666666666666--6/7-|
D|-6-----666-666-6-666666666666-6-6-666666666666-6-6-666666666666-6-6-666666666666--6/7-|
A|-4-----444-444-4-444444444444-4-4-444444444444-4-4-444444444444-4-4-444444444444--4/5-|
E|--------------------------------------------------------------------------------------|
         ... ...   ............     ............     ............     .......

LAST PART OF VERSE
e|----------------------------------------------------------------------------------|
B|----------------------------------------------------------------------------------|
G|-777-7----------------------------------------------------------------------------|
D|-777-7----------------------------------------------------------------------------|
A|-555-5----------------------------------------------------------------------------|
E|----------------------------------------------------------------------------------|
   ...

CHORUS
e|-------------------------------------------------------|
B|-------------------------------------------------------|
G|-999999999999-666666666666-444444444444-222222-444444--|
D|-999999999999-666666666666-444444444444-222222-444444--|
A|-777777777777-444444444444-222222222222-000000-222222--|
E|-------------------------------------------------------|

Interlude
e|------------------------------------------------------------------------------|
B|------------------------------------------------------------------------------|
G|-999999999999-666666666666------------------------------999999999999-6---6666-|
D|-999999999999-666666666666-666666666666-888888888888-x2-999999999999-6---6666-|
A|-777777777777-444444444444-666666666666-888888888888----777777777777-4---4444-|
E|---------------------------444444444444-666666666666--------------------------|
   ............ ............ ............ ............    ............

Format

Intro 1
Intro 2
Intro 3
Verse
Chorus
Intro 2
Verse
Interlude
Chorus
Tap to rate this tab
# A B C D E F G H I J K L M N O P Q R S T U V W X Y Z