Song name
# A B C D E F G H I J K L M N O P Q R S T U V W X Y Z

All Time Low - Breakout Breakout tab

Breakout, Breakout! by All Time Low off the album Put Up or Shut Up

Intro g1
E|---------------------------------------------------|
B|---------------------------------------------------|
G|--------11~/6~-----11--11--11--11--11--11--11--11--|
D|-6~--2~---------9-9--9---9---9---9---9---9---9-----|
A|-6~--2~----------9----9---9---9---9---9---9---9----|
E|-4~--0~--------------------------------------------|

E|---------------------------------------------------|
B|---------------------------------------------------|
G|-11111111-1111-4444-88-4444-88-4444-666------------| x2
D|--x-x-x-x--x-x-xxxx-xx-xxxx-xx-xxxx-xxx------------|
A|--9-9-9-9--9-9-2222-66-2222-66-2222-444------------|
E|---------------------------------------------------|

Intro g2
E|---------------------------------------------------|
B|---------------------------------------------------|
G|-3-44444444-3-44444444-3-44444444-333333333--------|
D|--4----------4----------4--------------------------|
A|---------------------------------------------------|
E|---------------------------------------------------|

E|-------------------------------------|
B|-------------------------------------|
G|-------------44------44--------------| x2
D|-666666-2222-44-2222-44--2222-444----|
A|-666666-2222-22-2222-22--2222-444----|
E|-444444-0000----0000-----0000-222----|

E|---------------------------------------------------|
B|---------------------------------------------------|
G|-11111111-1111-4444-88-4444-88-4444-666------------| x2
D|--x-x-x-x--x-x-xxxx-xx-xxxx-xx-xxxx-xxx------------|
A|--9-9-9-9--9-9-2222-66-2222-66-2222-444------------|
E|---------------------------------------------------|

Verse g1 and g2
E|---------------------------------|
B|---------------------------------|
G|---------444~~~------------------|
D|-xxxxxxx-444~~~--6666666-222~~~--|
A|-xxxxxxx-222~~~--6666666-222~~~--|
E|-xxxxxxx—--------4444444-000~~~--|
Pm                 *******

Pre-Chorus g1
E|---------------------------------------------------------------|
B|---------------------------------------------------------------|
G|-44444444------------------------------------------------------|
D|-44444444-44444444-66666666-44444444-2222~~-2222~-44444444-----|
A|-22222222-44444444-66666666-44444444-2222~~-2222~-44444444-----|
E|----------22222222-44444444-22222222-0000~~-0000~-22222222-----|

Pre-Chorus g2
E|----------------------------------------------------------|
B|----------------------------------------------------------|
G|-1111111111111111-44444444-88888888-1111111111111111------|
D|--x-x-x-x-x-x-x-x-xxxxxxxx-xxxxxxxx—-x-x-x-x-x-x-x-x------|
A|--9-9-9-9-9-9-9-9-22222222-66666666—-9-9-9-9-9-9-9-9------|
E|----------------------------------------------------------|

E|-----------------------------------|
B|-----------------------------------|
G|-4444~~~4444-66666666--------------|
D|-xxxx~~~xxxx-xxxxxxxx--------------|
A|-2222~~~2222-44444444--------------|
E|-----------------------------------|

Chorus x2 g1 and g2
E|---------------------------------------------------|
B|---------------------------------------------------|
G|-44444444------------------------------------------|
D|-44444444-44444444-2222~~-2222-44444444------------|
A|-22222222-44444444-2222~~-2222-44444444------------|
E|----------22222222-0000~~-0000-22222222------------|

Pre-Verse x4 g2
E|-------------------|
B|-------------------|
G|-----11------------|
D|--9-9--9-9---------|
A|-9-9----9----------|
E|-------------------|

Verse 2 g1
E|---------------------------------|
B|---------------------------------|
G|---------444~~~------------------|
D|-6666666-444~~~--6666666-222~~~--|
A|-6666666-222~~~--6666666-222~~~--|
E|-4444444—--------4444444-000~~~--|
Pm *******         *******

Verse 2 g2
E|--------------------------------------------|
B|---------7----------------------------------|
G|-----------444~~~---------------------------|
D|-----------444~~~-66666666-222~~~-----------|
A|-----------222~~~-66666666-222~~~-----------|
E|------------------44444444-000~~~-----------|
Pm                  ********

Pre-Chorus

Chorus

Bridge g1
E|--------------------------------------------------------------------|
B|--------------------------------------------------------------------|
G|--------4~~~--------4-------------4~~~------------------------------|
D|-6666-2-4~~~-6666-2-4-4~~~-6666-2-4~~~-6666-2~~~--4444444444444444--|
A|-6666-2-2~~~-6666-2-2-4~~~-6666-2-2~~~-6666-2~~~--4444444444444444--|
E|-4444-0------4444-0---2~~~-4444-0------4444-0~~~--2222222222222222--|
Pm ****        ****          ****        ***

Bridge g2
E|--------------------------------------------------|
B|--------------------------------------------------|
G|--------4~~~--------4-------------4~~~------------|
D|-6666-2-4~~~-6666-2-4-4~~~-6666-2-4~~~-6666-2~~~--|
A|-6666-2-2~~~-6666-2-2-4~~~-6666-2-2~~~-6666-2~~~--|
E|-4444-0------4444-0---2~~~-4444-0------4444-0~~~--|
Pm ****        ****          ****        ***

E|--------------------------------------------------------|
B|--------------------------------------------------------|
G|-11111111111111111111111111111111—-99999999-99998888----|
D|--x-x-x-x-x-x-x-x-x-x-x-x-x-x-x-x—-xxxxxxxx-xxxxxxxx----|
A|--9-9-9-9-9-9-9-9-9-9-9-9-9-9-9-9--77777777-77776666----|
E|--------------------------------------------------------|


Chorus (play this 1st time, then normal chorus 2nd time) g1 and g2
E|---------------------------------------------------|
B|---------------------------------------------------|
G|-44444444------------------------------------------|
D|-44444444-44444444-22222222-2222-44444444----------|
A|-22222222-44444444-22222222-2222-44444444----------|
E|----------22222222-00000000-0000-22222222----------|
Pm                            * *
Tap to rate this tab
 
# A B C D E F G H I J K L M N O P Q R S T U V W X Y Z