Song name
# A B C D E F G H I J K L M N O P Q R S T U V W X Y Z

All Time Low - Poppin Champagne tab


-------------------------------------------------------------------------------
			   Poppin' Champagne - All Time Low
-------------------------------------------------------------------------------
Tabbed by:Starguitar24
Email:

Tuning:drop D (DADGBe)

 Intro a/verse x4 guitar 1
e|---------------------------------------------------------------------------|
B|-10---10---10---10---8---8---7---7-----------------------------------------|
G|----7----7----7----7---7---7---7---7---------------------------------------|
D|---------------------------------------------------------------------------|
A|---------------------------------------------------------------------------|
D|---------------------------------------------------------------------------|
  Intro/verse x4 guitar 2
e|---------------------------------------------------------------------------|
B|---------------------------------------------------------------------------|
G|---------------------------------------------------------------------------|
D|-44444444--55555555--77777777--88888888------------------------------------|
A|-44444444--55555555--77777777--88888888------------------------------------|
D|-44444444--55555555--77777777--88888888------------------------------------|
  Intro b/verse x1 guitar 1
e|---------------------------------------------------------------------------|
B|-7---7---7---7---8---8---8---8---7---7---7---7---10---10---10---10---------|
G|---7---7---7---7---7---7---7---7---7---7---7---7----7----7----7----7-------|
D|---------------------------------------------------------------------------|
A|---------------------------------------------------------------------------|
E|---------------------------------------------------------------------------|
 Chorus x1 guitar 1 (listen to the song for strumming)
e|---------------------------------------------------------------------------|
B|---------------------------------------------------------------------------|
G|-11--7---11--12---14---11--9---6---7---11----------------------------------|
D|---------------------------------------------------------------------------|
A|-9---5---9---10---12---9---7---4---5---9-----------------------------------|
D|---------------------------------------------------------------------------|
 Chorus x1 guitar 2 (listen to the song for strumming)
e|---------------------------------------------------------------------------|
B|---------------------------------------------------------------------------|
G|---------------------------------------------------------------------------|
D|--4------4----5----9----7-----5--------------------------------------------|
A|--0-x16--4-x8-5-x8-9-x8-7-x8--5-x16----------------------------------------|
D|--0------4----5----9----7-----5--------------------------------------------|
 Verse 2 x3 guitar 2 (Listen to the song for strumming)
e|---------------------------------------------------------------------------|
B|---------------------------------------------------------------------------|
G|---------------------------------------------------------------------------|
D|--9------7------0------4--5------------------------------------------------|
A|--9-x16--7-x16--0-x14--4--5------------------------------------------------|
D|--9------7------0------4--5------------------------------------------------|
 Bridge x2 Guitar 2 (on 2nd time start skip 0-0-4)
e|----------------------------|
B|----------------------------|
G|----------------------------|
D|--4-~--4----5----0----7-----|
A|--0-~--4-x8-5-x8-0-x8-7-x8--|
D|--0-~--4----5----0----7-----|
 Solo x2 Guitar 1
e|---------------------------------------------------------------------------|
B|---------------------------------------------------------------------------|
G|--11--14--12--11--5---7---14---7---14--------------------------------------|
D|---------------------------------------------------------------------------|
A|--9---12--10--9---7---5---12---5---12--------------------------------------|
D|---------------------------------------------------------------------------|
 Solo x2 Guitar 2
e|---------------------------------------------------------------------------|
B|---------------------------------------------------------------------------|
G|---------------------------------------------------------------------------|
D|--9----0----7----5---------------------------------------------------------|
A|--9-x8-0-x8-7-x8-5-x8------------------------------------------------------|
D|--9----0----7----5---------------------------------------------------------|
 After solo guitar 1 start in chorus at... then go to regular chorus 1x
e|---------------------------------------------------------------------------|
B|---------------------------------------------------------------------------|
G|--11--9---6---7------------------------------------------------------------|
D|---------------------------------------------------------------------------|
A|--9---9---4---5------------------------------------------------------------|
D|---------------------------------------------------------------------------|
 (Guitar 2 end on 0-0-4 let ring)
                             The End

  Guitar 1                Guitar 2
 Intro a 4x               Intro 1x
 Intro b 1x               Chorus 1x
 Chorus 1x                Verse 2 3x
 Intro a 2x               Intro 1x
 Intro b 1x               Chorus 2x
 Chorus 2x                Bridge 2x
 Solo 2x                  Solo 2x
 Chorus 1 1/2x            Chorus 1 1/2x
Tap to rate this tab
 
# A B C D E F G H I J K L M N O P Q R S T U V W X Y Z