Song name
# A B C D E F G H I J K L M N O P Q R S T U V W X Y Z

All Time Low - Holly Would Turn Me On tab

-----------------------------------------------------------------
Holly (Would You Turn Me On) - All Time Low
-----------------------------------------------------------------
Tabbed by: Bair
Email: bair_morritt@hotmail.com

Tuning: Standard

Intro:
e|------------------------------------------|
B|------------------------------------------|
G|--4-------------4-------------------------|
D|--4--4--2-(X3)--4--4--6--2----------------|
A|--2--4--2-------2--4--6--2----------------|
E|-----2--0----------2--4--0----------------|
“When ya gonna give it up....”

Verse:
e|-------------------------------------------------|
B|-------------------------------------------------|
G|--6666--------4444--------6666--------4444-------|
D|--6666--4444--4444--2222--6666--4444--4444-(X2)--|
A|--4444--4444--2222--2222--4444--4444--2222-------|
E|--------2222--------0000--------2222-------------|
“You are the taste of....”

e|------------------------------------------|
B|------------------------------------------|
G|------------------------------------------|
D|--6--4--2---------------------------------|
A|--6--4--2-(LET RING)----------------------|
E|--4--2--0---------------------------------|
“Too much of you....”

Chorus:
e|---------------------------------------------------|
B|---------------------------------------------------|
G|--4444---------------------------------------------|
D|--4444--4444--22222222--6666--4444--22222222-(X2)--|
A|--2222--4444--22222222--6666--4444--22222222-------|
E|--------2222--00000000--4444--2222--00000000-------|
“When you gonna give it....”

-Then Intro
-Then Verse
-Then Chorus

Interlude:
e|-----------------------------------------------------|
B|-----------------------------------------------------|
G|--------------4444-----------------------------------|
D|--6666--4444--4444--2222--6666--4444--22222222-------|
A|--6666--4444--2222--2222--6666--4444--22222222-(X2)--|
E|--4444--2222--------0000--4444--2222--00000000-------|
“You took what you wanted....”

-Then Chorus (X2)
Tap to rate this tab
# A B C D E F G H I J K L M N O P Q R S T U V W X Y Z