Song name
# A B C D E F G H I J K L M N O P Q R S T U V W X Y Z

All Time Low - Come One Come All tab

-----------------------------------------------------------------
Come One, Come All – All Time Low
-----------------------------------------------------------------
Tabbed by: Bair
Email: bair_morritt@hotmail.com

Tuning: Standard

Intro:
e|------------------------------------------|
B|------------------------------------------|
G|--4444------------------------------------|
D|--4444--2222--6666--4--66--22-3---(X2)----|
A|--2222--2222--6666--4--66--22---2---------|
E|--------0000--4444--2--44--00-------------|
“Come one, come all....”

Verse:
e|------------------------------------------|
B|------------------------------------------|
G|--4----6----------------------------------|
D|--4----6----2----4------------------------|
A|--2----4----2----4------------------------|
E|------------0----2------------------------|
“I’ve got a bone to....”

e|------------------------------------------|
B|------------------------------------------|
G|--4444--6666------------------------------|
D|--4444--6666--2222--4444------------------|
A|--2222--4444--2222--4444------------------|
E|--------------0000--2222------------------|
“So go on and lock me....”

Pre-Chorus:
e|------------------------------------------|
B|------------------------------------------|
G|--------4444------------------------------|
D|--6666--4444--4444--2222----4-------------|
A|--6666--2222--4444--2222----4-------------|
E|--4444--------2222--0000----2-------------|
“I’ll change the station....”

Chorus:
e|------------------------------------------|
B|------------------------------------------|
G|--4444------------------------------------|
D|--4444--2222--6666--4--66--22-3---(X2)----|
A|--2222--2222--6666--4--66--22---2---------|
E|--------0000--4444--2--44--00-------------|
“So come one, come all....”

-Then Verse
-Then Pre-Chorus
-Then Chorus

Interlude:
e|------------------------------------------|
B|------------------------------------------|
G|--------------4444------------------------|
D|--6666--2222--4444--4444-(X2)-------------|
A|--6666--2222--2222--4444------------------|
E|--4444--0000--------2222------------------|
“Hear me out please....”

-Then Verse
-Then Chorus

End on a B
Tap to rate this tab
 
# A B C D E F G H I J K L M N O P Q R S T U V W X Y Z