Song name
# A B C D E F G H I J K L M N O P Q R S T U V W X Y Z

All-time Quarterback - Cleveland chords

Highlighted       Show chord diagrams
Capo on 5

Chords
   G    C
   3    0
   2    3
   0    2
   0    0
   0    1
   3    3


(lead guitar) Verse
e--------------------0-0-0-0-----------1-1-1-1-1-1-1-1-1-1-1-1-1-1-1-1-|
B--1-1-1-1--3-3-3-3-----------1-1-1-1----------------------------------|
G----------------------------------------------------------------------|
D----------------------------------------------------------------------|
A----------------------------------------------------------------------|
E----------------------------------------------------------------------|

(lead guitar) Chorus
e--------------------0-0-0-0-----------1-1-1-1-1-1-1-1-1-1-1-1-1-1-1-1-|
B--1-1-1-1--3-3-3-3-----------3-1-3------------------------------------|
G----------------------------------------------------------------------|
D----------------------------------------------------------------------|
A----------------------------------------------------------------------|
E----------------------------------------------------------------------|

G                        C
I hear it's colder in Cleveland,
G                        C
than anything you could believe,
G                        C
and if there was another reason,
G                        C
for you to stay another year.

(Chorus)
G               C
I go round and round.
G               C
I go round and round.

G                     C
Touch the tips of my fingers,
G                C
touch the end of me,
G                       C
it can't be colder in Cleveland.
G                   C
than it feels like here.

(Chorus)
G               C
I go round and round.
G               C
I go round and round.
G               C
I go round and round.
G               C
I go round and round.

G  end on C
Tap to rate this tab
 
# A B C D E F G H I J K L M N O P Q R S T U V W X Y Z