Song name
# A B C D E F G H I J K L M N O P Q R S T U V W X Y Z

All-time Quarterback - Stark Mobile tab

Austin Formica

ATQ-Stark Mobile

I think this is pretty much right...or at least as close you are going to
get without using the same toy guitar Ben Gibbard uses in the recording
great song.

capo on 7


Verse
e|--------------------------------|
B|--------------------------------|
G|---------------0---0--2---44----|
D|55-55--55-55--2-2---2-5-5-55----|
A|22-22--22-22--------------------|
E|---33-----33--------------------|

Chorus
e|---------------------|
B|---------------------|
G|-4-4-0-0--2--5-------|
D|-0-5-0-5--0--3-------|
A|-3-3-3-0--3--0-------|
E|-0-0-5/7--0--x-------|
  x4x4x4x4 x8 x8  

www.all-things-go.blogspot.com

Enjoy
Tap to rate this tab
# A B C D E F G H I J K L M N O P Q R S T U V W X Y Z