Song name
# A B C D E F G H I J K L M N O P Q R S T U V W X Y Z

All Together Separate - On And On tab

On and On
All Together Separate


Enjoy :)

okay this is just the basic structure of the song. i have heard it many times,
but I can't all of it.

"ON and ON"
tabbed by triplept1 @ triplept1@pe.net(if you have any questions)


Intro-
a-2----------------------------------|
E-0-0-3p0-0-0-5p0-0-0-6p0-0-0-7------|

verse-

 Em  D  C
e-7--7--5--|
b-8--7--5--|
g-7--7--5--|
d-9--7--5--|
a-7--------|
E----------|


chours

  f#   A   E    B
e---------------------|
b---------------------|
g----------9----5-----|
d---------------------|
a-5----7---7----2-----|
E-2----5--------------|


That is basically it.

the verse is played again and the chours as well,and then at the end of
the song the intro becomes the outro, basically( it has a variation in it )
Tap to rate this tab
# A B C D E F G H I J K L M N O P Q R S T U V W X Y Z