Song name
# A B C D E F G H I J K L M N O P Q R S T U V W X Y Z

All Youve Seen - Lhasa tab

This is a simple instrumental song with one guitar riff from a very fun band All You've
Seen. I think these guys plays simply great music. So, how I said, there is the only one
guitar riff that continues throughout the song. Then other instruments begin to play the 
same tune. Maybe it isn't completly right, but it sounds pretty good.

Listen to the song for timming. Please post corrections in the comments. Enjoy. Oh, and
greetings from Russia! :)

e|-------------------------------------9-----------------------------7---|
B|----10----10----10----10----10----10---10----8---8---8---8---8---8---8-|
G|-11----11----11----11----11----11----------9---9---9---9---9---9-------|
D|-----------------------------------------------------------------------|
A|-----------------------------------------------------------------------|
E|-----------------------------------------------------------------------|

e|------------------------------5--------------------------5-------------|
B|---6---6---6---6----6---6---6------4---4---4---4---4---4---6-----------|
G|-7---7---7---7---7---7----7------5---5---5---5---5---5-----------------|
D|-----------------------------------------------------------------------|
A|-----------------------------------------------------------------------|
E|-----------------------------------------------------------------------|

official website of All You've Seen: http://allyouveseen.bandcamp.com/
last.fm: http://www.last.fm/music/All+You%27ve+Seen
myspace: http://www.myspace.com/allyouveseen
Tap to rate this tab
# A B C D E F G H I J K L M N O P Q R S T U V W X Y Z