Song name
# A B C D E F G H I J K L M N O P Q R S T U V W X Y Z

All - Honey Peeps tab

Intro:
|---------|
|-5-5-5-5-|
|-3-3-3-3-|
|-4-4-4-4-|
|---------|
|---------|
	 
Verses:
e|---------------------------------------|
B|---------------------------------------|
G|-4---4---4---4---11--11--11--11--------|
D|-4---4---4---4---11--11--11--11--------|
A|-2---2---2---2---9---9---9---9---------|
E|---------------------------------------|

e|---------------------------------------------------------|
B|---------------------------------------------------------|
G|-------------------11--11--11--9---9---9---8---8---8---8-|
D|---6---6---6---6---11--11--11--9---9---9---8---8---8---8-|
A|---6---6---6---6---9---9---9---7---7---7---6---6---6---6-|
E|---4---4---4---4-----------------------------------------|

--
Chorus:(X2)
e|---------------------------------------------------------|
B|---------------------------------------------------------|
G|---4---4---4---4---8---8---8---8---9---9---9---9---------|
D|---4---4---4---4---8---8---8---8---9---9---9---9---------|
A|---2---2---2---2---6---6---6---6---7---7---7---7---------|
E|---------------------------------------------------------|
                                                               First time    Second time 
e|---------------------------------------------------------- |------------| |------------|
B|---------------------------------------------------------- |------------| |-5--5--5--5-|
G|---11--11--11--11--4---4---4---11--11--11--11--4---4---4-- |-4--4--4--4-| |-3--3--3--3-|
D|---11--11--11--11--4---4---4---11--11--11--11--4---4---4-- |-4--4--4--4-| |-4--4--4--4-|
A|---9---9---9---9---2---2---2---9---9---9---9---2---2---2-- |-2--2--2--2-| |------------|
E|---------------------------------------------------------- |------------| |------------|
--

This is the breakdown. That little "I turned on all my charm" part.
e|---------------------------------------------------------|
B|---------------------------------------------------------|
G|---6---6---6---8---9---9---9---4---4---4-----------------|
D|---6---6---6---8---9---9---9---4---4---4---6---6---6-----|
A|---4---4---4---6---7---7---7---2---2---2---6---6---6-----|
E|-------------------------------------------4---4---4-----|


End on 
|---|
|-7-|
|-6-|
|-4-|
|---|
|---|

Song Order:
-----------
Intro        x1
Verse        x2
Chorus       x1
Verse        x2
Chorus       x1
Breakdown    x2
N.C.         x1
Verse        x1
Chorus       x4

Tap to rate this tab
 
# A B C D E F G H I J K L M N O P Q R S T U V W X Y Z