Song name
# A B C D E F G H I J K L M N O P Q R S T U V W X Y Z

Allan Dawson - Turbononsense tab

Turbononsense (Single mix)
==========================

Words & Music by Allan Dawson

Tempo: 136bpm

Tuning: 6:G 5:G 4:C 3:G 2:B 1:G




slide guitar intro:
==================

       hold________  hold_______________________
   sl. vib.~~~~~~~~  vib.~~~~~~~~~~~~~~~~~~~~~~~   Sl.      Sl._____
||-------------------------------------|-----------------------------------|
||-------------------7--------(7)------|--(7)--------------7-\{6)/(7)------|
||----/7------(7)----7--------(7)------|--(7)------5-/(7)--7-\(6)/(7)------|
||----/7------(7)----------------------|-----------5-/(7)------------------|
||-------------------------------------|-----------------------------------|
||-------------------------------------|-----------------------------------|

beat:  1       2       3       4           1       2       3       4


                hold__________       hold_____
        sl.     vib~~~~~~~~~~~  sl.  vib.~~~~~                  sl.
|--------------------------------------|-------8-------8-------8-\(7)--7---|
|------8-\(7)--8------(8)------7-/(8)--|--(8)------8-------8---------------|
|------8-\(7)--8------(8)------7-/(8)--|--(8)------------------------------|
|--------------------------------------|-----------------------------------|
|--------------------------------------|-----------------------------------|
|--------------------------------------|-----------------------------------|

beat:  1       2       3       4           1       2       3       4



            sl.                                             sl.     sl.
|--------------------------------------|-----------------------------------|
|----------7-\(6)--7-------7---7-------|-------7---7-------7-\(6)--7-\(6)--|
|----------7-\(6)--7-------7---7-------|-------7---7-------7-\(6)--7-\(6)--|
|--------------------------------------|-----------------------------------|
|--------------------------------------|-----------------------------------|
|--------------------------------------|-----------------------------------|

beat:  1       2       3       4           1       2       3       4


                                             hold_______________________
        sl.              sl.                 vib.~~~~~  sl. vib.~~~~~~~~
|--------------------------------------|---10-----(10)--\-(8)-----(8)-----||
|------8-\(7)--8-------7-/(8)--8-------|---10-----(10)--\-(8)-----(8)-----||
|------8-\(7)--8-------7-/(8)------8---|----------------------------------||
|--------------------------------------|----------------------------------||
|--------------------------------------|----------------------------------||
|--------------------------------------|----------------------------------||

beat:  1       2       3       4           1       2       3       4



  tacet
||------------------------------------||
||------------------------------------||
||------------------------------------||
||------------------------------------||
||------------------------------------||
||------------------------------------||

beat:  1       2       3       4 

vocal: "one,   two,    three,  four!" (shouted)




Riff 1:
======


||-------------------------------------|-----------------------------------|
||-------------------------------------|-----------------------------------|
||-------------------------------------|-----------------------------------|
||-------------------------------------|-----------------------------------|
||-----8---8---8---8---8---8---8---5---|---7-------7---7---7---7---5---7---|
||-----8---8---8---8---8---8---8---5---|---7-------7---7---7---7---5---7---|

beat:  1       2       3       4           1       2       3       4


|--------------------------------------|----------------------------------||
|--------------------------------------|----------------------------------||
|--------------------------------------|----------------------------------||
|--------------------------------------|----------------------------------||
|------10--10--10--10--10--10--5-------|---8---8---8---7---5---x---5------||
|------10--10--10--10--10--10--5-------|---8---8---8---7---5---x---5------||

beat:  1       2       3       4           1       2       3       4




Riff 2:
======

||-------------------------------------|-----------------------------------|
||-------------------------------------|-----------------------------------|
||-------------------------------------|-------7-------7-----------7-------|
||-------------------------------------|-------7-------7-----------7-------|
||-----3-------3-------2-------2-------|---0-------------------0-----------|
||-----3-------3-------2-------2-------|---0-------------------0-----------|

beat:  1       2       3       4           1       2       3       4



|--------------------------------------|-----------------------------------|
|--------------------------------------|-----------------------------------|
|--------------------------------------|-------7-------7-------7-------7---|
|--------------------------------------|-------7-------7-------7-------7---|
|------3-------3-------2-------2-------|---0-----------------------0-------|
|------3-------3-------2-------2-------|---0-----------------------0-------|    

 
beat:  1       2       3       4           1       2       3       4



||-------------------------------------|-----------------------------------|
||-------------------------------------|-----------------------------------|
||-------------------------------------|-------7-------7-----------7-------|
||-------------------------------------|-------7-------7-----------7-------|
||-----3-------3-------2-------2-------|---0-------------------0-----------|
||-----3-------3-------2-------2-------|---0-------------------0-----------|

beat:  1       2       3       4           1       2       3       4



|--------------------------------------|-----------7---7---7---7----------||
|--------------------------------------|-----------7---7---7---7---9------||
|--------------------------------------|---------------------------9------||
|--------------------------------------|----------------------------------||
|------3-------3-------2-------2-------|---0------------------------------||
|------3-------3-------2-------2-------|---0------------------------------||    

 
beat:  1       2       3       4           1       2       3       4




Solo:
=====

         p      vib.~~~~~~~~    h p         h p              p    p p h
||---|---------------------------------|-----------7-----10-8\7------------|
||---|---------------------------------|---7/8\7-------8--------10\8\7/10-7|
||-7-|-8-\-7---8---------------7/8\7-7-|---------10------------------------|
||---|---------------------------------|-----------------------------------|
||---|---------------------------------|-----------------------------------|
||---|---------------------------------|-----------------------------------|

beat:  1       2       3       4           1       2       3       4


         p p      p p   p   p    p                   b+1------\rel.
|------10\8\7--7-----------------------|-----------------------------------|
|------------10-10\8\7-10\7 8\7--------|-----------7---8-----------7---8---|
|-------------------------------8\7-8--|---7---8---------------------------|
|--------------------------------------|-----------------------------------|
|--------------------------------------|-----------------------------------|
|--------------------------------------|-----------------------------------|

beat:  1       2       3       4           1       2       3       4


                                             hold
                  sl.     p       p           h 
|--------------------------------------|-----------------------------------|
|----10--10-10-10-\-8--8-\-7---8-\-7---|---7--(7)--7-----------------------|
|--------------------------------------|---7-/-8---7-------7---5-------5---|
|--------------------------------------|---------------9-----------7-------|
|--------------------------------------|-----------------------------------|
|--------------------------------------|-----------------------------------|

beat:  1       2       3       4           1       2       3       4


                                 hold
             p           h       h           h                       h  p
|--------------------------------------|---7-/-8---7-------10--8---7-7/8\7-|
|------------------------------7--(7)--|---7-----------8---10--8---7-------|
|------7---8-\-7---8-----------7-/-8---|-----------------------------------|
|----------------------7-/-8-----------|-----------------------------------|
|--------------------------------------|-----------------------------------|
|--------------------------------------|-----------------------------------|

beat:  1       2       3       4           1       2       3       4



        p   p   p    p   p  p   p h         h   p   p   p   sl.
|-----10\0-8\0-7\0-10\0-8\0------------|----------------------------------||
|--------------------------8\0---------|----------------------------------||
|------------------------------8\7/8---|-------7\0-8\0-7\0----------------||
|--------------------------------------|---7/8-------------8\-------------||
|--------------------------------------|----------------------\-----------||
|--------------------------------------|------------------------\---------||    

 
beat:  1       2       3       4           1       2       3       4



Outro Riff:
===========
                                                                    hold____
            trill~~~  trill~~                    p      p           b+1/
||-----------------------------7---8---|--7---10-\-8-----------------------|
||-------------------7/8\7/8\7---------|---------------8-\-7---------------|
||-----8---7/8\7/8\7-------------------|-----------------------7---7-------|
||-------------------------------------|-----------------------------------|
||-------------------------------------|-----------------------------------|
||-------------------------------------|-----------------------------------|

beat:  1       2       3       4           1       2       3       4


 (hold)____________________________
 (b+1)  (bend lower note only)     \rel.    vib.~~~~~~~~~~~~~~~
|--------------------------------------|----------------------------------||
|-----------8------8-------8-----------|----------------------------------||
|------(7)-----7-------7-------7---7---|---7------------------------------||
|--------------------------------------|----------------------------------||
|--------------------------------------|----------------------------------||
|--------------------------------------|----------------------------------||    

 
beat:  1       2       3       4           1       2       3       4



LYRICS & ARRANGEMENT:
====================

(Slide Guitar Intro)

1, 2, 3, 4.

(Riff 1)
I thought I'd left it all,

(Riff 2)
On a raft made of memories.
My mind is infected by you,
With the same old disease.


(Riff 1)
Remember how I know you?

(Riff 2)
Scratched to the bone with your goldfish bowl, and your.
Your turbononsense.
Scratched to the bone with your goldfish bowl, and your.
Your turbononsense.

(Riff 1)
A message in your space, confident.

(Riff 2)
You conceal your wounds,
Paint me a picture,
I am the paint,
Your art reveals you.

(Riff 1)
Remember how I know you?

(Riff 2)
You're melting your soul in your goldfish bowl, with your.
Your turbononsense.
You're melting your soul with your goldfish bowl and your,
Your turbononsense.

(Solo)

(Riff 1)
I thought I'd left it all,

(Riff 2)
On a raft made of memories.
My mind is infected by you,
With the same old disease.


(Riff 1)
Remember how I know you?

(Riff 2 1st 2 bars only)
Your turbononsense.

(Riff 1)
Remember how I know you?

(Riff 2 1st 4 bars only)
Your turbononsense.
Your turbononsense.

(Outro Riff)
Tap to rate this tab
 
# A B C D E F G H I J K L M N O P Q R S T U V W X Y Z