Song name
# A B C D E F G H I J K L M N O P Q R S T U V W X Y Z

Allan Holdsworth - Looking Glass tab

Tabbed By: SpookyLoop

Intro
e|-------------------------------------------------------------------------|
B|-------------------------------------------------------------------------|
G|-------------------------------------------------------------------------|
D|-2-2--22-2--55-5--77-7--10--2-2--22-2--55-5--00-0------------------------|
A|-2-2--22-2--55-5--77-7--10--2-2--22-2--55-5--00-0------------------------|
D|-2-2--22-2--55-5--77-7--10--2-2--22-2--55-5--00-0------------------------|

Verse
e|-------------------------------------------------------------------------|
B|-------------------------------------------------------------------------|
G|-------------------------------------------------------------------------|
D|---9-7h9-12-9-7h9----9-7h9-12-99-77-99--X2-------------------------------|
A|-7-----------------7-----------------------------------------------------|
D|-------------------------------------------------------------------------|

e|-7-777-------------------------------------------------------------------|
B|-------5--X16------------------------------------------------------------|
G|-------------------------------------------------------------------------|
D|-------------------------------------------------------------------------|
A|-------------------------------------------------------------------------|
D|-------------------------------------------------------------------------|

Pre Chorus
e|-------------------------------------------------------------------------|
B|-------------------------------------------------------------------------|
G|-------------------------------------------------------------------------|
D|-2-2--22-2--55-5--77-7--10--2-2--22-2--55-5--00-0------------------------|
A|-2-2--22-2--55-5--77-7--10--2-2--22-2--55-5--00-0------------------------|
D|-2-2--22-2--55-5--77-7--10--2-2--22-2--55-5--00-0------------------------|

Chorus 1
e|-------------------------------------------------------------------------|
B|-------------------------------------------------------------------------|
G|---------2-----7--------2-5---4-2---------2-----7------------------------|
D|-2-9-5-0-2-2-5-7--2-9-0-2-5-5-4-2-2-9-5-0-2-2-5-5------------------------|
A|-2-9-5-0-0-2-5-5--2-9-0-0-3-5-2-0-2-9-5-0-0-2-5-5------------------------|
D|-2-9-5-0---2-5----2-9-0-----5-----2-9-5-0---2-5--------------------------|

Pre Verse
e|-------------------------------------------------------------------------|
B|-------------------------------------------------------------------------|
G|-------------------------------------------------------------------------|
D|-2-2--22-2--2-2--22-2----------------------------------------------------|
A|-2-2--22-2--2-2--22-2----------------------------------------------------|
D|-2-2--22-2--2-2--22-2----------------------------------------------------|

Verse

Pre Chorus

Chorus 2
e|-------------------------------------------------------------------------|
B|-------------------------------------------------------------------------|
G|---------2-----7--------2-5---4-2---------2-----7-------2-5---4-2--------|
D|-2-9-5-0-2-2-5-7--2-9-0-2-5-5-4-2-2-9-5-0-2-2-5-5-2-9-0-2-5-5-4-2--------|
A|-2-9-5-0-0-2-5-5--2-9-0-0-3-5-2-0-2-9-5-0-0-2-5-5-2-9-0-2-3-5-2-0--------|
D|-2-9-5-0---2-5----2-9-0-----5-----2-9-5-0---2-5---2-9-0-----5------------|

Pre Chorus 

Chorus 2

Ending
e|-------------------------------------------------------------------------|
B|-------------------------------------------------------------------------|
G|-------------------------------------------------------------------------|
D|-2-2--22-2--2-2--22-2----------------------------------------------------|
A|-2-2--22-2--2-2--22-2----------------------------------------------------|
D|-2-2--22-2--2-2--22-2----------------------------------------------------|
Tap to rate this tab
# A B C D E F G H I J K L M N O P Q R S T U V W X Y Z