Song name
# A B C D E F G H I J K L M N O P Q R S T U V W X Y Z

Allan Holdsworth - Funnels tab

Tabbed by: M. R.

Tuning: E A D G B E

Hey guys, this is the head/chord progression to "Funnels" by Allan Holdsworth, off of 
Atavachron album. This was done using the Amazing Slow Downer and my imperfect ears, so 
free to offer any corrections you have. Otherwise, enjoy!

GTR. 1
e|-------13------------------------------------------------------------------|
B|----17--------13--------10-------8-----------------------------------------|
G|----14--------14-----------12----9-----------------------------------------|
D|----15-----------15-----10-------10----------------------------------------|
A|-13-----------12--------8--------7-----------------------------------------|
E|---------------------------------------------------------------------------|

e|------9--------------------------------------------------------------------|
B|---13--------9-------------------------------------------------------------|
G|---10-------10----------6-----8--------------------------------------------|
D|---11----------11-----8-------11-------------------------------------------|
A|-9----------8---------8-------9--------------------------------------------|
E|----------------------6-------7--------------------------------------------|

  GTR. 1
e|-17\15----13---10---8---6---8---10---13/15\13---10---6---------------------|
B|-15\13----11---8----6---4---6---8----11/13\11---8----7---------------------|
G|---------------------------------------------------------------------------|
D|---------------------------------------------------------------------------|
A|---------------------------------------------------------------------------|
E|---------------------------------------------------------------------------|
 |GTR. 2
e|-8----------------------6------------5---------------6---------------------|
B|-6----------------------6------------6---------------7---------------------|
G|-7----------------------8------------7---------------10--------------------|
D|-7----------------------8------------7---------------8---------------------|
A|------------------------6----------------------------6---------------------|
E|---------------------------------------------------------------------------|

  GTR. 1
e|-15\13---10---8---10---13---15---13---10-----------------------------------|
B|-13\11---8----6---8----11---13---11---8------------------------------------|
G|---------------------------------------------------------------------------|
D|---------------------------------------------------------------------------|
A|---------------------------------------------------------------------------|
E|---------------------------------------------------------------------------|
 |GTR. 2
e|-8------------6---------5--------------------------------------------------|
B|-6------------6---------6--------------------------------------------------|
G|-7------------8---------7--------------------------------------------------|
D|-7------------8---------7--------------------------------------------------|
A|--------------6------------------------------------------------------------|
E|---------------------------------------------------------------------------|
                                    _________  ________________________
GTR. 1                             |1.        |2.
e||----------------------------------------|-|-------------------------------|
B||o---10--------10--------13-------10----o|-|---6-------5-------5-----------|
G||-------9---------10--------13-------10--|-|-----6-------4-------5---------|
D||----11--------10--------13-------10-----|-|---6-------6-------5-----------|
A||o---9---------7---------12-------11----o|-|---4-------4-------2-----------|
E||----------------------------------------|-|-------------------------------|

e|---------------------------------------------------------------------------|
B|---8-------5-------5-------5-------8------7--------------------------------|
G|-----8-------5-------4-------5-------8----7--------------------------------|
D|---8-------5-------6-------5-------8------5--------------------------------|
A|---7-------6-------4-------2-------7------7--------------------------------|
E|---------------------------------------------------------------------------|

e|---8-----------5---------3----------8----------7---------------------------|
B|-----12----------8---------7----------12---------10-------10---------------|
G|--------12---------7---------7----------12----------10----9----------------|
D|----------------------------------------------------------11---------------|
A|---0-----------6--------------------0----------8----------9----------------|
E|-------------------------0-------------------------------------------------|

e|------6--------------------------------------------------------------------|
B|---10------6-------4-------------------------------------------------------|
G|---7-------7---------3-----------------------------------------------------|
D|---8---------8-------------------------------------------------------------|
A|---6-------5-------3-------------------------------------------------------|
E|---------------------------------------------------------------------------|

| /  slide up
| \  slide down
| h  hammer-on
| p  pull-off
| ~  vibrato
| +  harmonic
| x  Mute note
===============
Tap to rate this tab
# A B C D E F G H I J K L M N O P Q R S T U V W X Y Z