Song name
# A B C D E F G H I J K L M N O P Q R S T U V W X Y Z

Allan Holdsworth - Metal Fatigue tab

Help us improve GuitareTab! Take a short survey!
--------------------------------------------------------------------

           Allan Holdsworth - Metal Fatigue
			     
--------------------------------------------------------------------

Tabbed by:Evil_empire24-7

Tuning:EADGBe

--------------------------------------------------------------------

Gtr-1 / Distortion
Gtr-2 / Slight Reverb With Slight Distortion
 
 Gtr-1

Opening Chord: A5 
                   

                                (Solo)
 
       
 Gtr-2

e|-15-20-------17-----------------------------------------------10--|
B|---------18------17---20------18--17--------------------10-11-----|
G|--------------------------19---------19-17----19~~~~-17-----------|
D|-------------------------------------------19---------------------|
A|------------------------------------------------------------------|
E|------------------------------------------------------------------|


e|-15-13p10--------------13-10--------------------------------------|
B|----------11-10h11~~-13-------13-10--------------10--10-----------|
G|------------------------------------12-10-9-10-12------12--11-10--|
D|------------------------------------------------------------------|
A|------------------------------------------------------------------|
E|------------------------------------------------------------------|


e|------------------------------------------10-15-13----------------|
B|--------------------------------------9-13------------------------|
G|-9-10-12-10-9-----------------------10----------------------------|
D|--------------12-10-8--------------8------------------------------|
A|---------------------12-10-8-10-12--------------------------------|
E|------------------------------------------------------------------|


            now comes the hard part it's a little tricky

                
e|-10-12-13p12p10-----10--------------------------------10-13-12-9--|
B|---------------13p10--13p10-------------------10-12-13------------|
G|---------------------------12hb-12-10-----12----------------------|
D|-------------------------------------12-10------------------------|
A|------------------------------------------------------------------|
E|------------------------------------------------------------------|


e|------------------------------------------------------------------|
B|-9----------------------------------------------------------------|
G|-----------------------------------7h11h13p11p7-------------------|
D|--12-9---------7h11h13p11p7---------------------------------------|
A|------9/7h10h13------------9p7h9p13------------9p7h9p12-----------|
E|------------------------------------------------------------------|


e|---------------------7h10h13p12p11p10-----------------------------|
B|-7h10h12p10p7------------------------13p11p10------------------10-|
G|-------------9p7h9h12------------------------12p11p10/9h10p9h10---|
D|------------------------------------------------------------------|
A|------------------------------------------------------------------|
E|------------------------------------------------------------------|

e|------------------------10-----8h12-10-9h10-13-12-10-15--13-12----|
B|---11p10--10-13-11-10-11--13-12-----------------------------------|
G|-12-----13--------------------------------------------------------|
D|------------------------------------------------------------------|
A|------------------------------------------------------------------|
E|------------------------------------------------------------------|

e|-17---------------15(let ring)------------------------------------|
B|------------------------------------------------------------------|
G|------------------------------------------------------------------|
D|------------------------------------------------------------------|
A|------------------------------------------------------------------|
E|------------------------------------------------------------------|


| fb full bend
| hb half bend
| /  slide up
| \  slide down
| h  hammer-on
| p  pull-off
| ~  vibrato
| +  harmonic
| x  Mute note
===========================================================================

enjoy holdsworth !!!!!
Related for Metal Fatigue tab