Song name
# A B C D E F G H I J K L M N O P Q R S T U V W X Y Z

Allee Der Kosmonauten - Vater Des Lichts tab

This is a way, how to play this song by one guitar. The English Name is "Father of Light".

order:

part1: 4x
Refrain: 2x
part2: 3x
Refrain2: 3x
Bridge: 8x
Refrain2: 3x
part1: 2x
part2: 3x

part1:
e|--x-x-x--x-x-x-x-x---x-x-x--x-x-x-x-x--|
H|--x-x-x--x-x-x-x-x---x-x-x--x-x-x-x-x--|
G|--1-1-1--2-2-2-2-2---1-1-1--2-2-2-2-2--|
D|--2-2-2--2-2-2-2-2---2-2-2--2-2-2-2-2--|
A|--0-0-0--0-0-0-0-0---0-0-0--0-0-0-0-0--|
E|--x-x-x--x-x-x-x-x---x-x-x--x-x-x-x-x--|

e|--2-2-2--2-2-2-2-2--2-2-2--2-2-2-2-2---|
H|--3-3-3--2-2-2-2-2--0-0-0--2-2-2-2-2---|
G|--2-2-2--2-2-2-2-2--2-2-2--2-2-2-2-2---|
D|--0-0-0--0-0-0-0-0--0-0-0--0-0-0-0-0---|
A|--x-x-x--x-x-x-x-x--x-x-x--x-x-x-x-x---|
E|--x-x-x--x-x-x-x-x--x-x-x--x-x-x-x-x---|

Refrain:
e|--x-x-x--x-x-x--x-x---x-x-x--x-x-x--x-x---2-2-2--2-2-2--2-2---2-2-2--2-2-2--2-2--|
H|--2-2-2--2-2-2--2-2---0-0-0--0-0-0--x-x---3-3-3--3-3-3--2-2---3-3-3--3-3-3--2-2--|
G|--2-2-2--4-4-4--2-2---1-1-1--2-2-2--4-4---2-2-2--4-4-4--2-2---2-2-2--4-4-4--2-2--|
D|--2-2-2--2-2-2--2-2---2-2-2--2-2-2--2-2---0-0-0--0-0-0--0-0---0-0-0--0-0-0--0-0--|
A|--0-0-0--0-0-0--0-0---2-2-2--2-2-2--2-2---x-x-x--x-x-x--x-x---x-x-x--x-x-x--x-x--|
E|--x-x-x--x-x-x--x-x---0-0-0--0-0-0--0-0---x-x-x--x-x-x--x-x---x-x-x--x-x-x--x-x--|

part2:
e|--0-0-0--0-0-0--x-x---0-0-0--0-0-0--x-x---x-x-x--x-x-x--x-x---x-x-x--x-x-x--x-x--|
H|--0-0-0--x-x-x--2-2---0-0-0--x-x-x--2-2---x-x-x--x-x-x--x-x---x-x-x--x-x-x--x-x--|
G|--2-2-2--4-4-4--2-2---2-2-2--4-4-4--2-2---1-1-1--2-2-2--4-4---1-1-1--2-2-2--4-4--|
D|--2-2-2--2-2-2--2-2---2-2-2--2-2-2--2-2---2-2-2--2-2-2--2-2---2-2-2--2-2-2--2-2--|
A|--0-0-0--0-0-0--0-0---0-0-0--0-0-0--0-0---0-0-0--0-0-0--0-0---0-0-0--0-0-0--0-0--|
E|--x-x-x--x-x-x--x-x---x-x-x--x-x-x--x-x---0-0-0--0-0-0--0-0---0-0-0--0-0-0--0-0--|

e|--0-0-0--0-0-0--x-x---0-0-0--0-0-0--x-x---x-x-x--x-x-x--x-x---x-x-x--x-x-x--x-x--|
H|--0-0-0--x-x-x--2-2---0-0-0--x-x-x--2-2---x-x-x--x-x-x--x-x---x-x-x--x-x-x--x-x--|
G|--2-2-2--4-4-4--2-2---2-2-2--4-4-4--2-2---1-1-1--2-2-2--4-4---1-1-1--1-1-1--1-1--|
D|--2-2-2--2-2-2--2-2---2-2-2--2-2-2--2-2---2-2-2--2-2-2--2-2---0-0-0--2-2-2--4-4--|
A|--0-0-0--0-0-0--0-0---0-0-0--0-0-0--0-0---0-0-0--0-0-0--0-0---0-0-0--0-0-0--0-0--|
E|--x-x-x--x-x-x--x-x---x-x-x--x-x-x--x-x---0-0-0--0-0-0--0-0---0-0-0--0-0-0--0-0--|

Refrain2:
    A        A         E        E         D        D         D        D
e|-----------------------------------------------------------------------------|
H|-----------------------------------------------------------------------------|
G|---------------------1-1-1-1--1-1-1-1---7-7-7-7--7-7-7-7---7-7-7-7--7-7-7-7--|
D|--7-7-7-7--7-7-7-7---2-2-2-2--2-2-2-2---7-7-7-7--7-7-7-7---7-7-7-7--7-7-7-7--|
A|--7-7-7-7--7-7-7-7---2-2-2-2--2-2-2-2---5-5-5-5--5-5-5-5---5-5-5-5--5-5-5-5--|
E|--5-5-5-5--5-5-5-5---0-0-0-0--0-0-0-0---0-0-0-0--0-0-0-0---0-0-0-0--0-0-0-0--|

Bridge:
e|---x-x-x--x-x--x-x-x---|
H|---0-0-0--x-x--0-0-0---|
G|---2-2-2--4-4--1-1-1---|
D|---2-2-2--2-2--2-2-2---|
A|---0-0-0--0-0--0-0-0---|
E|---x-x-x--x-x--x-x-x---|

here an link to their website: http://www.alleederkosmonauten.com/
Tap to rate this tab
 
# A B C D E F G H I J K L M N O P Q R S T U V W X Y Z