Song name
# A B C D E F G H I J K L M N O P Q R S T U V W X Y Z

Allele - Immune tab

Allele: Immune

Transcribed by: mysticguitar77

YouTube Channel: MysticGuitar77

Date last modified: January 22, 2014

Tuning: C Standard (C,F,A#,D#,G,C)

Riff 1 (clean, let all notes ring out)
 C|--------3---3---3---3---3---3---3-------3---2---0-----------------|
 G|----------------------------------------------------3---3---3---3-|
D#|---0--------------------------------0-----------------------------|
A#|-2---2----2---2---2---2---2---2---0---0---0---0---0---0---0---0---|
 F|------------------------------------------------------------------|
 C|------------------------------------------------------------------|

Play Riff 1 x4

Riff 2 (clean, let all notes ring out)   "In love with you again..."
 C|-5h7---3---3---3---3---3---3---3-------3---2---0-----------------|
 G|---------------------------------------------------3---3---3---3-|
D#|-----------------------------------0-----------------------------|
A#|-----2---2---2---2---2---2---2---0---0---0---0---0---0---0---0---|
 F|-----------------------------------------------------------------|
 C|-----------------------------------------------------------------|

Play Riff 2 x4    "Just like a burning candle I'd be your burning sun..."

Riff 3 (clean, let all notes ring out)   "So what if I, what if I..."
 C|-----------------------------------------------------------------|
 G|-----------------------------------------------------------------|
D#|-----------------------------------------------------------------|
A#|---5---5---5---5---5---5---5---5---4---4---4---4-----------------|
 F|-3---3---3---3---3---3---3---3---2---2---2---2-----5---5---5---5-|
 C|-------------------------------------------------3---3---2---2---|

Riff 4    "Throw my return to you..."
 C|-------------------------------------------------------------------|
 G|-------------------------------------------------------------------|
D#|----------------------------------------------5--5-5--4-4--4-4-4---|
A#|-2~-----2-2-2---5~-----5-5-5---7~-----7-7-7---5--5-5--4-4--4-4-4---|
 F|-2~-----2-2-2---5~-----5-5-5---7~-----7-7-7---3--3-3--2-2--2-2-2---|
 C|-0~-----0-0-0-0-3~-----3-3-3-0-5~-----5-5-5-0--------------------0-|

Play Riff 4 x2   "There's no way out..."
Play Riff 1 x2
Play Riff 2 x4   "I'm bending back to face the truth..."
Play Riff 3 x1    (distorted this time and palm mute)
Play Riff 4 x1   "Throw my return to you..."

Riff 5   "And I'll come and beg for you..."
 C|----------------------------------------------------|
 G|----------------------------------------------------|
D#|----------------------------------------------------|
A#|-2~-----2-2-2---5~-----5-5-5---7--7--7-7-7--7-7-7-7-|
 F|-2~-----2-2-2---5~-----5-5-5---7--7--7-7-7--7-7-7-7-|
 C|-0~-----0-0-0-0-3~-----3-3-3-0-5--5--5-5-5--5-5-5-5-|
                                          *

 C|---------------------------------|
 G|-------0---0-----------0---0-----|
D#|-----2-------2-------2-------2---|
A#|---5-----------5---4-----------4-|
 F|-3-------3-------2-------2-------|
 C|---------------------------------|
    * * * * * * * * * * * * * * * *

Solo
 C|-----------------------------------------------------------------|
 G|-/12~-------7-7~---8-8--8/10-10~-------------15----13~--12~------|
D#|-----------------------------------------/14----14-14~--14~--14~-|
A#|------------------------------------/14~---------------------14~-|
 F|-----------------------------------------------------------------|
 C|-----------------------------------------------------------------|

*this bit is pretty quick, you could just play the single notes instead*
 C|------------------------------------------------|
 G|------------------------------------------------|
D#|-14-12-11-12-/16-14-12-11--12-12/14-12-11-7-7---|
A#|-x--x--x--x---x--x--x--x---x--x--x--x--x--x-x---|
 F|-12-10-9--10-/14-12-10-9---10-10/12-10-9--5-5---|
 C|----------------------------------------------0-|

Play Riff 4 x1   "Throw my return to you..."
Play Riff 5 x1   "So I'm coming back to you..."

Riff 6   "No way out!!"
 C|----------------------------|
 G|----------------------------|
D#|----------------------------|
A#|-2~------2~------2~------2~-|
 F|-2~------2~------2~------2~-|
 C|-0~------0~------0~------0~-|

Enjoy!!
Tap to rate this tab
 
# A B C D E F G H I J K L M N O P Q R S T U V W X Y Z