Song name
# A B C D E F G H I J K L M N O P Q R S T U V W X Y Z

Allen Toussaint - Sweet Touch Of Love tab

Chorus
Play 4x
============================================================================
e|-4------------------------------6----------------------|
B|-4------------------------------8----------------------|
G|-5------------------------------8----------------------|
D|-6------------------------------8----------------------|
A|-6------------------------------6----------------------|
E|-4------------------------------x----------------------|
      When a cold chill begins to burn at your very soul

e|-4------------------------------4----------------------|
B|-6------------------------------4----------------------|
G|-6------------------------------5----------------------|
D|-6------------------------------6----------------------|
A|-4------------------------------6----------------------|
E|-x------------------------------4----------------------|
     That's the sweet    touch of love
=============================================================================

Pre-Verse
Play 2x
=============================================================================
e|-6-------------------------------4------------------------------4-----4-|
B|-6-------------------------------6------------------------------4-----4-|
G|-7-------------------------------6------------------------------5-----5-|
D|-8-------------------------------6------------------------------6-----6-|
A|-8-------------------------------4------------------------------6-----6-|
E|-6-------------------------------x------------------------------4-----4-|
   You brought out the best in me, made me leave the rest of me behind

e|-7----------------------7---------------7----------------4--------------|
B|-9----------------------7---------------9----------------6--------------|
G|-9----------------------6---------------9----------------6--------------|
D|-9----------------------9---------------9----------------6--------------|
A|-7----------------------9---------------7----------------4--------------|
E|-x----------------------7---------------x----------------x--------------|
    You delivered me from loneliness, and only-ness, oh yes you did
============================================================================

Then play:
Chorus 2x followed by:
this break (not exact, but pretty close)
=============================================================================
e|-4-4----2-2----2-2----2-2----|
B|-4-4----2-2----2-2----2-2----|
G|-5-5----3-3----4-4----3-3----|
D|-6-6----4-4----3-3----4-4----|
A|-6-6----4-4----4-4----4-4----|
E|-4-4----2-2----2-2----2-2----|
=============================================================================

Chorus 2x followed by:
this break 2x
=============================================================================
e|-4----4-7----9--4--|
B|-4----4-7----9--4--|
G|-5----5-8----10-5--|
D|-6----6-9----11-6--|
A|-6----6-9----11-6--|
E|-4----4-7----9--4--|
=============================================================================

Then jam out on 
e|-4-|
B|-4-|
G|-5-|
D|-6-|
A|-6-|
E|-4-|

Corrections welcome, esp. concerning that first break part. Enjoy!
http://www.nynorecords.com/allen.shtml
Tap to rate this tab
# A B C D E F G H I J K L M N O P Q R S T U V W X Y Z