Song name
# A B C D E F G H I J K L M N O P Q R S T U V W X Y Z

Allie Moss - Corner tab

Well I saw that no one else had posted any tabs on this song and I figured I'd have a go
the intro at least until someone does...This is my first tab and it's been done purely
ear with my acoustic so it might be a bit off! This is only the introduction up until 
she starts singing properly. It's called "Corner" by Allie Moss from her album
and was recently in the BT infinity advert.

Listen to the song to get the full rhythm: it's a bit like "Hey there Delilah" by the
White Tees in it's one note, then a power chord...it's about 122 cbpm but not exact so
off listening to the song!

Standard tuning E A D G B E

----------------------------------|
---2------2------2------2---------|
---1------1------1------1---------| X2 (intro, where she doesn't sing)
----------------------------------|
-4------4------4------4-----------|
----------------------------------|

This is where she sings the "do do do" part
-----------------------------------------------------------------------|
---2-----2-----2-----2-----2-----2-----2-----2-----2-----2-----2-----2-|
---1-----1-----1-----1-----1-----1-----1-----1-----1-----1-----1-----1-|
-----------------------------------------------------------------------|
-4-----4-----4-----4-----3-----3-----3-----3-----1-----1-----1-----1---|
-----------------------------------------------------------------------|

-----------------------------------------------------------------------|
---2-----2-----2-----2-----2-----2-----2-----2-----2-----2-----2-----2-|
---1-----1-----1-----1-----1-----1-----1-----1-----1-----1-----1-----1-|
-----------------------------------------------------------------------|
--------------------------4-----4-----4-----4-----3-----3-----3-----3--|
-1-----1-----2-----2---------------------------------------------------|

-----------------------------------------------------------------------|
---2-----2-----2-----2-----2-----2-----2-----2-----2-----2-----2-----2-|
---1-----1-----1-----1-----1-----1-----1-----1-----1-----1-----1-----1-|
-----------------------------------------------------------------------|
-1-----1-----3-----3------------------------------4-----4-----4-----4--|
--------------------------2-----2-----2-----2--------------------------|

-----------------------------------------------------------------------|
---2-----2-----2-----2-----2-----2-----2-----2-----2-----2-----2-----2-|
---1-----1-----1-----1-----1-----1-----1-----1-----1-----1-----1-----1-|
-----------------------------------------------------------------------|
-3-----3-----3-----3-----1-----1-----1-----1-----1-----1-----1-----1---|
-----------------------------------------------------------------------|

And then she starts singing properly...I'm fairly certain it starts off in a similar way
then it changes slightly I'm working on the full tab and will post if it's ready and no
else posts a full tab... this tab is purely by ear, my first tab and it is by no means 
You have been warned.

Tabbed in a very amateur fashion by: Penguin Warrior

http://www.alliemoss.com/
Tap to rate this tab
 
# A B C D E F G H I J K L M N O P Q R S T U V W X Y Z