Song name
# A B C D E F G H I J K L M N O P Q R S T U V W X Y Z

Allie Moss - Passerby tab

Allie Moss - Passerby

I thought I'd take matters into my own hands when I couldn't find a tab. It's my first 
too sooo, wish me luck. ;) I'm pretty sure it's right though. :)

Intro/Verse

--8---8---8---8---8---8---8---8---7---7---7---7---5---5---5---5---7---|
----------------------------------------------------------------------|
----------------------------------------------------------------------|
7---7---7---7---5---5---5---5---5---5---5---5---3---3---3---3-----5---|
----------------------------------------------------------------------|
----------------------------------------------------------------------|

Intro into bridge-you'll understand when you listen to the song. :)

--5---5---5---5---5---5---5---5---5---5---5---5---5---5---5---5-------|
----------------------------------------------------------------------|
----------------------------------------------------------------------|
3---3---3---3---5---5---5---5---3---3---3---3---5---5---5---5---------|
----------------------------------------------------------------------|
----------------------------------------------------------------------|

Bridge

--8---8---8---8---12---12---12---12---7---7---7---7---8---8---8---8---|
----------------------------------------------------------------------|
----------------------------------------------------------------------|
7---7---7---7---10---10---10---10---5---5---5---5---7---7---7---7-----|
----------------------------------------------------------------------|
----------------------------------------------------------------------|


--5---5---5---5-------3---5---7---------------------------------------|
------------------6---------------------------------------------------|
----------------------------------------------------------------------|
3---3---3---3---------2---3---5---------------------------------------|
------------------5---------------------------------------------------|
----------------------------------------------------------------------|


Played out with another verse. :)
Enjoy. :)
Tap to rate this tab
 
# A B C D E F G H I J K L M N O P Q R S T U V W X Y Z