Song name
# A B C D E F G H I J K L M N O P Q R S T U V W X Y Z

Allie Moss - Corner tab

This is what i could hear from the song

Capo 1st Fret

Standard Tuning

----------|
--1-1-1-1-|
--0-0-0-0-|
----------|           (x2)
-3-3-3-3--|
----------|


----------------------------------|
--1-1-1-1-1-1-1-1-1-1-1-1-1-1-1-1-|
--0-0-0-0-0-0-0-0-0-0-0-0-0-0-0-0-|
----------------------------------|
-3-3-3-3-2-2-2-2-0-0-0-0----------|
-------------------------0-0-1-1--|


----------------------------------|
--1-1-1-1-1-1-1-1-1-1-1-1-1-1-1-1-|
--0-0-0-0-0-0-0-0-0-0-0-0-0-0-0-0-|
----------------------------------|
-3-3-3-3-2-2-2-2-0-0-2-2----------|
-------------------------1-1-1-1--|


----------------------------------|
--1-1-1-1-1-1-1-1-1-1-1-1-1-1-1-1-|
--0-0-0-0-0-0-0-0-0-0-0-0-0-0-0-0-|
----------------------------------|
-3-3-3-3-2-2-2-2-0-0-0-0-0-0-0-0--|
----------------------------------|


This is only the Introduction, but i believe its correct

ENJOY!

alycat712
Tap to rate this tab
 
# A B C D E F G H I J K L M N O P Q R S T U V W X Y Z