Guitaretab - guitar tabs
Song name
# A B C D E F G H I J K L M N O P Q R S T U V W X Y Z

Allies - Devil Is A Liar tab

Since this band broke up a while ago, I don't believe that they have their own site,
but here is a site that lists their discography:
http://musicmoz.org/Bands_and_Artists/A/Allies/


Allies: The Devil is a Liar
album: Long Way From Paradise (Dayspring)
Words & Music: Bob Carlisle and Randy Thomas
copyright: 1989 Carlisle & Thomasongs Music / Word Music / ASCAP
(tabbed by Simon MacFarlane)


e |-----------------|-----------------|-----------------|-----------------|
B |-----------------|-----------------|-----------------|-----------------|
G |-----------------|-----------------|-----------------|-----------------|
D |---------5-----7-|---------5-----7-|---------5-----7-|-7---------------|
A |-------5---5-7---|-------5---5-7---|-------5---5-7---|-7---------------|
E |-5-5-8-----------|-5-5-8-----------|-5-5-8-----------|-5---------------|

								He's only six-
[ Tab from: http://www.guitaretab.com/a/allies/65439.html ]
e |-----------------|-----------------|-----------------|-----------------|
B |-----------------|-----------------|-----------------|-----------------|
G |-----------------|-----------------|-----------------|-----------------|
D |---------5-----7-|---------5-----7-|---------5-----7-|---------5-----7-|
A |-------5---5-7---|-------5---5-7---|-------5---5-7---|-------5---5-7---|
E |-5-5-8-----------|-5-5-8-----------|-5-5-8-----------|-5-5-8-----------|

   teen  			and acting too cool		  stealing your

e |-----------------|-----------------|-----------------|-----------------|
B |-----------------|-----------------|-----------------|-----------------|
G |-----------------|-----------------|-----------------|-----------------|
D |---------5-----7-|---------5-----7-|---------5-----7-|---------5-----7-|
A |-5-5---5---5-7---|-5-5---5---5-7---|-------5---5-7---|-------5---5-7---|
E |-----8-----------|-----8-----------|-5-5-8-----------|-5-5-8-----------|

   hearts			and breakin' all rules		   he's gonna

e |-----------------|-----------------|-----------------|------------------|
B |-----------------|-----------------|-----------------|------------------|
G |-----------------|-----------------|-----------------|------------------|
D |-----------------|---------5-----7-|---------5-----7-|-7----------------|
A |---------5-----7-|-5-5---5---5-7---|-------5---5-7---|-7----------------|
E |-0-0-3-5---5-7---|-----8-----------|-5-5-8-----------|-5----------------|

   find out		   who's playin' the fool...

this is probably one of the coolest intros to any song...EVER! (and my first tab at the 
time)