Song name
# A B C D E F G H I J K L M N O P Q R S T U V W X Y Z

Alligatoah - Trostpreis tab

Intro and Verse:
---------------------------------------------------------------------------|
-----8-8-8-8----------------------------------------------8----------------|
-----7-7-7-7----------------------------------------------7----------------|
-----9-9-9-9----------------------------------------------9----------------|
--7--7-7-7-7-------10-10-10-10--------12-12-12-12--10-9-7-7----------------|
--------------7-8--8--8--8--8---8-10--10-10-10-10-----------10-------------|


PreChorus:
Ich schau' dir ins Gesicht ...

-8---10-----8--------------------------------|
-8---10-----8--------------------------------|
-9---11--8--9--------------------------------|
-10--12--7--10-------------------------------|
-10--12--9--10-------------------------------|
-8---10--7--8--------------------------------|

Chorus:
Schatz es tut mir so leid ... (x2)
-------------------------------|
-------------------------------|
-9------12-----9---------------|
-7--10--10--9--7--10--12-------|
----8-------7-----8---10-------|


ab "Lalalalalalala ..."

-------------------------------|
-------------------------------|
-------------------------------|
-9------12------9--------------|
-7--10--10--12--7--10-9--------|
----8-------10-----8--7--------|
Tap to rate this tab
 
# A B C D E F G H I J K L M N O P Q R S T U V W X Y Z