Song name
# A B C D E F G H I J K L M N O P Q R S T U V W X Y Z

Alligatoah - Willst Du tab

Ich bin mir zu 98% sicher dass das intro (was gleichzeitig auch während des verses und 
am Anfang des refrains gespielt wird) richtig ist ...

wenn ihr es auf einer western gitarre spielt dann wundert euch nicht weil die aufnahme 
erfolgte durch eine konzertgitarre und deswegen hört es sich n bissl anders an =)

------------------------------------------------------------------------------
                             Willst du - Alligatoah
------------------------------------------------------------------------------
Tabbed by: AlvadoZ

Tuning: Standart

e|----------------------------------------------------------------------------|
B|----------0-----------0-----------------------------------------------------|
G|------6h8---------6h8---------8-------6------6------------------------------|
D|--6-6----------------------------9----8------8------------------------------|
A|--------------7-7-----------------------------------------------------------|
E|--------------------------7-7-------------6-----6---------------------------|
Tap to rate this tab
# A B C D E F G H I J K L M N O P Q R S T U V W X Y Z