Song name
# A B C D E F G H I J K L M N O P Q R S T U V W X Y Z

Alligatoah - Willst Du tab

Hallo! Ich habe dieses Lied komplett rausgehört also es besteht womöglich keine 
100 prozentige Korrektheit dieses Tabs! Aber in meinen Ohren klingt es genauso wie 
im Original! Enjoy! :)

^ = Hammer on nächste Note :)

Intro + Verse + 1. Guitar in Chorus

E|--------------------------------------------------|
H|-------------0-----------0------------------------|
G|--------6^-8--------6^-8----------0---------------|
D|----6-6-------------------------8-----8---8-------|
A|----------------7-7---------7-7-------9-9-9-9-----|
E|--------------------------------------------------|


Chorus (2. Guitar) Spielt man gedämpft!

E|------------------------------------------------|
H|------------------------------------------------|
G|------------------------4-4-4-4-----------------|
D|----6-6-6-6---2-2-2-2---4-4-4-4---4-4-4-4-------|
A|----6-6-6-6---2-2-2-2---2-2-2-2---4-4-4-4-------|
E|----4-4-4-4---0-0-0-0-------------2-2-2-2-------|


Im Hintergrund des Chorus sind hohe Noten... diese sind es denk' ich mal:

E|---14--------14---------|
H|---16---16---16---16----|
G|------------------------|
D|------------------------|
A|------------------------|
E|------------------------|


"Solo" gegen Ende:

E|---14-----------14---------|
H|-------16------------16----|
G|---------------------------|
D|---------------------------|
A|---------------------------|
E|---------------------------|


Tabbed by JulesThomall
Youtube Guitar Lesson Link:
Tap to rate this tab
# A B C D E F G H I J K L M N O P Q R S T U V W X Y Z