Song name
# A B C D E F G H I J K L M N O P Q R S T U V W X Y Z

Alligatoah - Namen Machen tab

E|-------------4------------------------------------|
H|--------9------6----------------------------------|
G|-----------------6--------5-----------------------|
D|-----10--------------------------10-10^-11p-10-8--|
A|---8--------------------6-------------------------|
E|----------------------4--------8------------------|


E|-------------4------------------------------------|
H|--------9------6----------------------------------|
G|-----------------6--------5---------9-------------|
D|-----10--------------------------10---------------|
A|---8--------------------6-------------------------|
E|----------------------4--------8------------------|

Chords and other stuff is already Tabbed by others on Ultimate Guitar.


Tabbed By JulesThomall
Youtube Guitarlesson Link:
Tap to rate this tab
# A B C D E F G H I J K L M N O P Q R S T U V W X Y Z