Song name
# A B C D E F G H I J K L M N O P Q R S T U V W X Y Z

Alligatoah - Willst Du tab

Song: Willst du
Artist: Alligatoah

Tuning: DADGBE

e|-----------------------------------------------|
b|-----------------------------------------------|
g|------------------------------------8----------| 8x
d|-------11h13p11-------11h13p11----------9--8-8-|
a|-11-11-----------7-7---------------------------|
d|--------------------------------9-9------------|
    .  .           . .            . .

e|----------------------------------|
b|----------------------------------|
g|----------------------------------|
d|-6----9----6----4----6------9---4-|
a|-6----9----6----4----6------9---4-|
d|-6----9----6----4----6------9---4-|

e|-----------------------------------------------|
b|-----------------------------------------------|
g|------------------------------------8----------| 4x
d|-------11h13p11-------11h13p11----------9--8-8-|
a|-11-11-----------7-7---------------------------|
d|--------------------------------9-9------------|

e|--------------------------|
b|--------------------------|
g|--------------------------| 4x
d|-6-6-6-9-9-9-111111-4-4-4-|
a|-6-6-6-9-9-9-111111-4-4-4-|
d|-6-6-6-9-9-9-111111-4-4-4-|
   . .   . .   . .   . .

e|-----------------------------------------------|
b|-----------------------------------------------|
g|------------------------------------8----------| 6x
d|-------11h13p11-------11h13p11----------9--8-8-|
a|-11-11-----------7-7---------------------------|
d|--------------------------------9-9------------|

e|----------------------------------|
b|----------------------------------|
g|----------------------------------|
d|-6----9----6----4----6------9---4-|
a|-6----9----6----4----6------9---4-|
d|-6----9----6----4----6------9---4-|

e|-----------------------------------------------|
b|-----------------------------------------------|
g|------------------------------------8----------| 4x
d|-------11h13p11-------11h13p11----------9--8-8-|
a|-11-11-----------7-7---------------------------|
d|--------------------------------9-9------------|

e|--------------------------|
b|--------------------------|
g|--------------------------| 4x
d|-6-6-6-9-9-9-111111-4-4-4-|
a|-6-6-6-9-9-9-111111-4-4-4-|
d|-6-6-6-9-9-9-111111-4-4-4-|
   . .   . .   . .   . .

e|-----------------------------------------------|
b|-----------------------------------------------|
g|------------------------------------8----------| 8x
d|-------11h13p11-------11h13p11----------9--8-8-|
a|-11-11-----------7-7---------------------------|
d|--------------------------------9-9------------|

e|-------------------------|
b|-------------------------|
g|-------------------------| 2x
d|-6-6-6-2-2-2-9-9-9-4-4-4-|
a|-6-6-6-2-2-2-9-9-9-4-4-4-|
d|-6-6-6-2-2-2-9-9-9-4-4-4-|

e|-----------------------------------------------|
b|-----------------------------------------------|
g|------------------------------------8----------| 4x
d|-------11h13p11-------11h13p11----------9--8-8-|
a|-11-11-----------7-7---------------------------|
d|--------------------------------9-9------------|


Guitar 1
e|---------------------------------------------------------------------------|
b|-16~----------------16~-------------------16~----12~--------16~----12~-----|
g|---------------------------------------------------------------------------|
d|---------------------------------------------------------------------------|
a|---------------------------------------------------------------------------|
d|---------------------------------------------------------------------------|

Guitar 2
e|--------------------------|
b|--------------------------|
g|--------------------------| 4x
d|-6-6-6-9-9-9-111111-4-4-4-|
a|-6-6-6-9-9-9-111111-4-4-4-|
d|-6-6-6-9-9-9-111111-4-4-4-|
   . .   . .   . .   . .

e|--------------------------|
b|--------------------------|
g|--------------------------| 4x
d|-6-6-6-9-9-9-111111-4-4-4-|
a|-6-6-6-9-9-9-111111-4-4-4-|
d|-6-6-6-9-9-9-111111-4-4-4-|
Tap to rate this tab
# A B C D E F G H I J K L M N O P Q R S T U V W X Y Z