Song name
# A B C D E F G H I J K L M N O P Q R S T U V W X Y Z

Alligatoah - Willst Du tab

Tuning: E-A-D-G-B-E
Capo 6th fret
Easy to play on one guitar


 |       |       |       |        |       |       |       |
|--------------------------------|--------------------------------|
|--------------------------------|--------------------------------|
|----------------0h--2-----------|----------------0h--2-----------|
|0-------0---------------3-------|------------------------3-------|
|--------------------------------|1-------1-----------------------|
|--------------------------------|--------------------------------|

 |       |       |       |        |       |       |       |
|--------------------------------|--------------------------------|
|--------------------------------|--------------------------------|
|----------------2---------------|--------------------------------|
|------------------------3-------|2---------------2---------------|
|--------------------------------|3---------------3---------------|
|1-------1-----------------------|--------0---------------0-------|



During the part "Komm wir gehn..." it's played like this:



 |       |       |       |        |       |       |       |
|--------------------------------|--------------------------------|
|--------------------------------|--------------------------------|
|3---3---3---3-------------------|----------------5---5---5---5---|
|3---3---3---3---3---3---3---3---|5---5---5---5---5---5---5---5---|
|1---1---1---1---3---3---3---3---|5---5---5---5---3---3---3---3---|
|----------------1---1---1---1---|3---3---3---3-------------------|


This sounds correct to me, compared to other tabs without capo. No need to take the 
empty B-string (wrong sound).
Tap to rate this tab
 
# A B C D E F G H I J K L M N O P Q R S T U V W X Y Z