Alligatoah - Willst Du tab

[Intro]
e|-------------------------------------------------|
B|-------------------------------------------------|
G|------6h8---------6h8---------8-------6-----6----|
D|--6-6-----9-----------9----------9----8-----8----|
A|--------------7-7------------------------9-----9-|
E|--------------------------7-7---------6-----6----|

[Verse] [Bridge]
Verse and Bridge will be played like Intro but you can also play the chords
g# E B F#

[Refrain]
Refrain will be played depressed but let ring the third stroke per beat (~)
    E5      B5      C#5     F#5
e|-----------------------------------|
B|-----------------------------------|
G|----------4-4-4~4-6-6-6~6----------|
D|--2-2-2~2-4-4-4~4-6-6-6~6-4-4-4~4--|
A|--2-2-2~2-2-2-2~2-4-4-4~4-4-4-4~4--|
E|--0-0-0~0-----------------2-2-2~2--|

[Outro] 
Outro will be played like Refrain, maybe you let ring the third stroke per beat and omit the fourth
    E5      B5      C#5     F#5
e|-----------------------------------|
B|-----------------------------------|
G|----------4-4-4~--6-6-6~-----------|
D|--2-2-2~--4-4-4~--6-6-6~--4-4-4~---|
A|--2-2-2~--2-2-2~--4-4-4~--4-4-4~---|
E|--0-0-0~------------------2-2-2~---|

---------------------------------------------------------------------------------------------------

[Intro] (x4)
e|-------------------------------------------------|
B|-------------------------------------------------|
G|------6h8---------6h8---------8-------6-----6----|
D|--6-6-----9-----------9----------9----8-----8----|
A|--------------7-7------------------------9-----9-|
E|--------------------------7-7---------6-----6----|

[Verse 1]
             g#                       E
Wie man eine Liebe maximal romantisch lebt, will jeder wissen
       B                       F#
Keiner hilft uns - Fair play!
                      g#                 E                 B                  F#
Gott sei dank gibt es Film und Fernseh'n, da, wo ich meine Bildung her nehm'
                    g#                     E                              
Glaub mir, das wird super, für deine Story hab ich schon den Grund
        B                        F#
Weshalb du in deiner Jugendphase wutgeladen bist
     g#                       E
Dein Papa kam nicht zu deinem Schultheaterstück
        B                            F#
Bei mir finden wir schon was, wo der Schuh gerade drückt
    g#              E        B                  F#            g#
Wir kennen uns seit X Jahren, du brauchst jetzt nix sagen
               E              B                F#        
Ich wollt dich fragen: Wollen wir den nächsten Schritt wagen?

[Bridge]
g#  E             B      F#         g#
Willst du mit mir Drogen nehmen?
     E            B     F#        g#    
Dann wird es rote Rosen regnen
    E              B      F#  
Ich hab's in einer Soap gesehen
g#  E             B      F#    
Willst du mit mir Drogen nehmen?

[Refrain]
E5              B5               C#5                F#5
Komm! Komm, wir geh'n, komm, wir geh'n zusamm'n den Bach runter
E5              B5               C#5                F#5
Komm! Komm, wir geh'n, komm, wir geh'n zusamm'n den Bach runter
E5              B5               C#5                F#5
Komm! Komm, wir geh'n, komm, wir geh'n zusamm'n den Bach runter
E5             B5            C#5             F#5
Komm! Denn ein Wrack ist ein Ort, an dem ein Schatz schlummert

[Intro] (x2)
e|-------------------------------------------------|
B|-------------------------------------------------|
G|------6h8---------6h8---------8-------6-----6----|
D|--6-6-----9-----------9----------9----8-----8----|
A|--------------7-7------------------------9-----9-|
E|--------------------------7-7---------6-----6----|

[Verse 2]
               g#                  E                       B
Jetzt sind wir frei, chillen auf gigantischen Berggipfeln
                            F#                    g#
Du musst dann sagen: Keiner kann unsern Schmerz diggen
                    E                  B
Wir sammeln erstmal fröhliche Kiff-Sonntage
                F#              g#
Für die hituntermalte Schnittmontage
                     E
Komm schon, das wird romantisch
              B                             F#           g#
Wenn ich dich halte, damit du nicht auf den Klorand brichst
                       E
Dann verdienen wir ein Kerzen-Paket
        B                 F#
Für die erste WG auf 'nem Herren-WC
     g#          E      B       F#
Eine herbstliche Szene, weil es passt
        g#                             E
Und ich falle auf die Knie und hol aus meiner Jacke
     B                    F#
Eine kleine Schachtel, du weißt, was abgeht

[Bridge]
g#  E             B      F#         g#
Willst du mit mir Drogen nehmen?
     E            B     F#        g#    
Dann wird es rote Rosen regnen
    E              B      F#  
Ich hab's in einer Soap gesehen
g#  E             B      F#    
Willst du mit mir Drogen nehmen?

[Refrain]
E5              B5               C#5                F#5
Komm! Komm, wir geh'n, komm, wir geh'n zusamm'n den Bach runter
E5              B5               C#5                F#5
Komm! Komm, wir geh'n, komm, wir geh'n zusamm'n den Bach runter
E5              B5               C#5                F#5
Komm! Komm, wir geh'n, komm, wir geh'n zusamm'n den Bach runter
E5             B5            C#5             F#5
Komm! Denn ein Wrack ist ein Ort, an dem ein Schatz schlummert

[Intro] (x4)
e|-------------------------------------------------|
B|-------------------------------------------------|
G|------6h8---------6h8---------8-------6-----6----|
D|--6-6-----9-----------9----------9----8-----8----|
A|--------------7-7------------------------9-----9-|
E|--------------------------7-7---------6-----6----|

[Verse 3]
                      g#                      E         B
Und dann brauchen wir epische Fights, wer das lausige H kriegt
           F#
Zuschauer: rauchende Babys
    g#                                E
Sie werden nicht verwöhnt, die müssen Fertigsuppe löffeln
        B                            F#
Und die spielen mit vom Körperbau entfernten Puppenköpfen
          g#                      E                       B
Du willst raus per klischeehafter Flucht in ein Landhaus
                                   F#
Ich brüll dann so was wie: "Gleich rutscht mir die Hand aus!
   g#                    E                       B
Du wirst mit den Kindern nirgendwohin fahr'n!"
                           F#                          g#
Ich werd euch mit 'ner Axt durch ein Labyrinth jag'n
           E                       B
Im Winter, weil ich das Bild feier 
                     F#                         g#
Mach unser Leben filmreifer als Til Schweiger
               E                  B
Es hat Action, Drama und Comedy
                   F#
Also was sagst du, mon chéri?

[Bridge]
g#  E             B      F#         g#
Willst du mit mir Drogen nehmen?
     E            B     F#        g#    
Dann wird es rote Rosen regnen
       E            B       F#  
Um dem Kinofilm die Show zu stehlen
g#  E             B      F#    
Willst du mit mir Drogen nehmen?

[Refrain]
E5              B5               C#5                F#5
Komm! Komm, wir geh'n, komm, wir geh'n zusamm'n den Bach runter
E5              B5               C#5                F#5
Komm! Komm, wir geh'n, komm, wir geh'n zusamm'n den Bach runter
E5              B5               C#5                F#5
Komm! Komm, wir geh'n, komm, wir geh'n zusamm'n den Bach runter
E5             B5            C#5             F#5
Komm! Denn ein Wrack ist ein Ort, an dem ein Schatz schlummert

[Outro]
E5          B5  C#5     F#5
  Komm, wir geh'n- (Den Bach runter)
E5          B5  C#5     F#5
  Komm, wir geh'n- (Den Bach runter)
E5          B5  C#5     F#5
  Komm, wir geh'n- (Den Bach runter)
E5          B5               C#5                F#5
  Komm, wir geh'n, komm, wir geh'n zusamm'n den Bach runter
Tap to rate this tab
 
# A B C D E F G H I J K L M N O P Q R S T U V W X Y Z