Guitaretab - guitar tabs
Song name
# A B C D E F G H I J K L M N O P Q R S T U V W X Y Z

Allison - Memorama tab

solo saqué la 1era guitarra.
palm mutE

1er. verso:

E|------------------------------------------------------|
B|------------------------------------------------------|
G|-6----------3-----------------------------------------|
D|-6--x16-----3--x16----4-----------6-------------------|
A|-4----------1---------4--x16------6--x16--------------|
E|----------------------2-----------4-------------------|

CORO:
16 veces cada acorde tambien
E|------------------------------------------------------|
B|------------------------------------------------------|
G|-2--3-------------------------------------------------|
D|-2--3--6--4-------------------------------------------|
A|-4--1--6--4-------------------------------------------|
E|-------4--2-------------------------------------------|

2do verso:

E|------------------------------------------------------|
B|------------------------------------------------------|
G|-6----------3-----------------------------------------|
D|-6--x16-----3--x16----4-----------6-------------------|
A|-4----------1---------4--x16------6--x16--------------|
E|----------------------2-----------4-------------------|

CORO:
[ Tab from: http://www.guitaretab.com/a/allison/109311.html ]
E|------------------------------------------------------|
B|------------------------------------------------------|
G|-2--3-------------------------------------------------|
D|-2--3--6--4-------------------------------------------|
A|-4--1--6--4-------------------------------------------|
E|-------4--2-------------------------------------------|

BREAK: esto es despues del 2do coro:

E|--------------------------------------------------------------------|
B|--------------------------------------------------------------------|
G|--------------------------------------------------------------------|
D|-8--6--8------8--6--8----8--11-4-4-4-4-4-4-4-4-4-4-4-4-4-4-4--------|
A|-8--6--8------8--6--8----8--11-4-4-4-4-4-4-4-4-4-4-4-4-4-4-4--------|
E|-6--4--6------6--4--6----6--9--2-2-2-2-2-2-2-2-2-2-2-2-2-2-2--------|


CORO:

E|------------------------------------------------------|
B|------------------------------------------------------|
G|-2--3-------------------------------------------------|
D|-2--3--6--4-------------------------------------------|
A|-4--1--6--4-------------------------------------------|
E|-------4--2-------------------------------------------|







Related for Memorama tab
Memorama chords by Allison