Song name
# A B C D E F G H I J K L M N O P Q R S T U V W X Y Z

Allison - Hoy Es Otro Dia Mas tab

e-------------------------------------------------------|
a-------------------------------------------------------|
g----4-4-4-4-4-4-3-3-3-3-3-3-6-4-3-4-3-4--6-4-3-4-3-4---|
d-------------------------------------------------------|
b-------------------------------------------------------|
e-------------------------------------------------------|

e---------------------------------------------------------|
a---------------------------------------------------------|
g---/-9-9-9-9-9-9-8-8-8-8-8-8--11--9-8-9-8-9-11-9-8-9-8-9-|
d---------------------------------------------------------|
b---------------------------------------------------------|
e---------------------------------------------------------|

e-------------------------------------------------------|
a-------------------------------------------------------|
g----4-3-4-6-4-3-4-4-3-4-6--4-3-/-----------------------|
d-------------------------------------------------------|
b-------------------------------------------------------|
e-------------------------------------------------------|
TQMM rubi !!!!!!
e-------------------------------------------------------|
a-------------------------------------------------------|
g--9-8-9-11-9-8-9-9-8-9-11-9-8--------------------------|
d-------------------------------------------------------|
b-------------------------------------------------------|
e-------------------------------------------------------|

e-------------------------------------------------------|
a----------------12----12-------------------------------|
g-/8-11-11-11-11----11---11-(x2)------------------------|
d-------------------------------------------------------|
b-------------------------------------------------------|
e-------------------------------------------------------|

e-------------------------------------------------------|
a-------------------------------------------------------|
g--14-14-14-14--12-12-12-12--11-11-11-11/12-------------|
d-------------------------------------------------------|
b-------------------------------------------------------|
e-------------------------------------------------------|
Tap to rate this tab
 
# A B C D E F G H I J K L M N O P Q R S T U V W X Y Z