Song name
# A B C D E F G H I J K L M N O P Q R S T U V W X Y Z

Allison - Dejame Verte tab

Difficulty: Novice
Tune: Drop D

Tabbed by: Pedro Guillen
Contact E-mail: pdrguillen2@yahoo.com


Tab Legend:
h = hammer on
/// = Tremolo picking
(#)/ = slide up neck
(#)\ = slide down neck
PM = Palm Mute
x = mute string

Artist: Allison
Album: Memorama
Year: 2008

I Noticed there wasn't a good tab on here for it so I decided to do it.  I play 
this song in Drop D because it just feels right.  Comments and corrections are welcomed.


***INTRO***
[Clean]
"No te vayas ya, deja mirar tus ojos..."/"y no volveras, solo dejame verte" 
e--------------------------------------------------------------------|
B--------------------------------------------------------------------|
G--------------------------------------------------------------------|
D-4-4-4-4-4-4-4-4-4-4-4-4--------------------------------------------| X2
A-2-2-2-2-2-2-2-2-2-2-2-2-2-2-2-2-6-6-6-6-6-6-6-6-6-6-6-6-4-4-4-4----|
D-------------------------2-2-2-2-6-6-6-6-6-6-6-6-6-6-6-6-4-4-4-4----|
PM*******************************************************************

"ya...."
e-------------------------------------|
B-------------------------------------|
G-------------------------------------|
D-4-4-4-4-4-4-4-4-4-4-4-4-4-4-4-4-----|
A-2-2-2-2-2-2-2-2-2-2-2-2-2-2-2-2-----|
D-------------------------------------|
PM*******************************






***VERSE 1*** 
[Clean]
"No puedo creer, todo lo ke e sufrido..." 
e--------------------------------------------------------------------|
B--------------------------------------------------------------------|
G--------------------------------------------------------------------|
D-4-4-4-4-4-4-4-4-4-4-4-4--------------------------------------------| 
A-2-2-2-2-2-2-2-2-2-2-2-2-2-2-2-2-6-6-6-6-6-6-6-6-6-6-6-6-4-4-4-4----|
D-------------------------2-2-2-2-6-6-6-6-6-6-6-6-6-6-6-6-4-4-4-4----|
PM*******************************************************************

[Dist]
"te vas de aki, no creo ke has podido, entenderme bien" 
e-------------------------------------------------------------------|
B-------------------------------------------------------------------|
G-------------------------------------------------------------------|
D-4-4-4-4-4-4-4-4-4-4-4-4-------------------------------------------| 
A-2-2-2-2-2-2-2-2-2-2-2-2-2-2-2-2-6-6-6-6-6-6-6-6-6-6-6-6-4-4-4-4---|
D-------------------------2-2-2-2-6-6-6-6-6-6-6-6-6-6-6-6-4-4-4-4---|
PM***********************************************





***Pre-CHORUS***
[Dist]
"No puedo creer ke te vayas, no puedo entender ke te marchas"
e----------------------------------------|
B----------------------------------------|
G-4--4--4--4-----------------------------|
D-4--4--4--4--2-2--2-2--2-2--2-2---------|
A-2--2--2--2--2-2--2-2--2-2--2-2---------|
D-------------2-2--2-2--2-2--2-2---------|






***CHORUS***
[Dist]
"No te vayas ya, deja mirar tus ojos..."
e--------------------------------------------------------------------|
B--------------------------------------------------------------------|
G-4-4-4-4-4-4-4-4-4-4-4-4-4-4-4-4------------------------------------|
D-4-4-4-4-4-4-4-4-4-4-4-4-4-4-4-4-2-2-2-2-2-2-2-2-2-2-2-2-2-2-2-2----|
A-2-2-2-2-2-2-2-2-2-2-2-2-2-2-2-2-2-2-2-2-2-2-2-2-2-2-2-2-2-2-2-2----|
D---------------------------------2-2-2-2-2-2-2-2-2-2-2-2-2-2-2-2----|

[Dist]
"volveras, solo dejame verte..."
e----------------------------------------------------------------------|
B----------------------------------------------------------------------|
G----------------------------------------------------------------------|
D-6-6-6-6-6-6-6-6-6-6-6-6-6-6-6-6-4--4--4-4-4-4--4--4-4--4-------------|
A-6-6-6-6-6-6-6-6-6-6-6-6-6-6-6-6-4--4--4-4-4-4--4--4-4--4-------------|
D-6-6-6-6-6-6-6-6-6-6-6-6-6-6-6-6-4--4--4-4-4-4--4--4-4--4-------------|

e------------------------------------------------------------|
B------------------------------------------------------------|
G-4-4-4-4-4-4-4-4-4-4-4-4-4-4-4------------------------------|
D-4-4-4-4-4-4-4-4-4-4-4-4-4-4-4---2-2--2-2--2-2--2-2---------|
A-2-2-2-2-2-2-2-2-2-2-2-2-2-2-2---2-2--2-2--2-2--2-2---------|
D---------------------------------2-2--2-2--2-2--2-2--2/10---|





***VERSE 2***
[Dist]
"No puedo creer, todo lo ke e sufrido..."
e-------------------------------------------------------------------|
B-------------------------------------------------------------------|
G-------------------------------------------------------------------| 
D-4-4-4-4-4-4-4-4-4-4-4-4-4-4-4-4-----------------------------------|
A-2-2-2-2-2-2-2-2-2-2-2-2-2-2-2-2-2-2-2-2-2-2-2-2-2-2-2-2-2-2-2-2---|
D---------------------------------2-2-2-2-2-2-2-2-2-2-2-2-2-2-2-2---|
PM*****************************************************************

[Dist]
"duele pensar, ke todo se termine..."
e-------------------------------------------------------------------|
B-------------------------------------------------------------------|
G-------------------------------------------------------------------| 
D-4-4-4-4-4-4-4-4-4-4-4-4-4-4-4-4-----------------------------------|
A-2-2-2-2-2-2-2-2-2-2-2-2-2-2-2-2-2-2-2-2-2-2-2-2-2-2-2-2-2-2-2-2---|
D---------------------------------2-2-2-2-2-2-2-2-2-2-2-2-2-2-2-2---|
PM***********************************************





***Pre-CHORUS***
[Dist]
"No puedo creer ke te vayas no puedo entender ke te marchas no puedo..."
e-----------------------------------------------------------------------|
B-----------------------------------------------------------------------|
G-4--4--4--4------------------------------------------------------------|
D-4--4--4--4--2--2--2--2--6--6--6--6------------------------------------|
A-2--2--2--2--2--2--2--2--6--6--6--6--4-4-4-4-4-4-4-4-4-4-4-4-4-4-4-4---|
D-------------2--2--2--2--6--6--6--6--4-4-4-4-4-4-4-4-4-4-4-4-4-4-4-4---|
                                     [PM*****************************] 






***CHORUS***
[Dist]
"No te vayas ya, deja mirar tus ojos"
e--------------------------------------------------------------------|
B--------------------------------------------------------------------|
G-4-4-4-4-4-4-4-4-4-4-4-4-4-4-4-4------------------------------------|
D-4-4-4-4-4-4-4-4-4-4-4-4-4-4-4-4-2-2-2-2-2-2-2-2-2-2-2-2-2-2-2-2----|
A-2-2-2-2-2-2-2-2-2-2-2-2-2-2-2-2-2-2-2-2-2-2-2-2-2-2-2-2-2-2-2-2----|
D---------------------------------2-2-2-2-2-2-2-2-2-2-2-2-2-2-2-2----|

[Dist]
"volveras, solo dejame verte..."
e----------------------------------------------------------------------|
B----------------------------------------------------------------------|
G----------------------------------------------------------------------|
D-6-6-6-6-6-6-6-6-6-6-6-6-6-6-6-6-4--4--4-4-4-4--4--4-4--4-------------|
A-6-6-6-6-6-6-6-6-6-6-6-6-6-6-6-6-4--4--4-4-4-4--4--4-4--4-------------|
D-6-6-6-6-6-6-6-6-6-6-6-6-6-6-6-6-4--4--4-4-4-4--4--4-4--4-------------|







***INSTRUMENTAL***
[Dist]
e--------------------------------------------------------------------|
B--------------------------------------------------------------------|
G--------------------------------------------------------------------|
D------4---4-----3---4---3-4-3------4---4-----3---4---3-4-4----------| X4
A--------------------------------------------------------------------|
D--0-0---0---0-0---0---0--------0-0---0---0-0---0---0----------------|

e------------------------------------|
B------------------------------------|
G------------------------------------|
D------------------------------------|
A-0-0-0-0-0-0-0---0-0---0---0-0---0--|
D-0-0-0-0-0-0-0---0-0---0---0-0---0--|
PM*********************************

e-----------------------------------|
B-----------------------------------|
G-----------------------------------|
D-----------------------------------|
A-0-0-0-0-0-0-0---0-0---0---0-------|
D-0-0-0-0-0-0-0---0-0---0---0-2/10--|
PM***************************






***CHORUS***
[Dist]
"No te vayas ya, deja mirar tus ojos"
e--------------------------------------------------------------------|
B--------------------------------------------------------------------|
G-4-4-4-4-4-4-4-4-4-4-4-4-4-4-4-4------------------------------------|
D-4-4-4-4-4-4-4-4-4-4-4-4-4-4-4-4-2-2-2-2-2-2-2-2-2-2-2-2-2-2-2-2----|
A-2-2-2-2-2-2-2-2-2-2-2-2-2-2-2-2-2-2-2-2-2-2-2-2-2-2-2-2-2-2-2-2----|
D---------------------------------2-2-2-2-2-2-2-2-2-2-2-2-2-2-2-2----|

[Dist]
"volveras, solo dejame verte..."
e----------------------------------------------------------------------|
B----------------------------------------------------------------------|
G----------------------------------------------------------------------|
D-6-6-6-6-6-6-6-6-6-6-6-6-6-6-6-6-4--4--4-4-4-4--4--4-4--4-------------|
A-6-6-6-6-6-6-6-6-6-6-6-6-6-6-6-6-4--4--4-4-4-4--4--4-4--4-------------|
D-6-6-6-6-6-6-6-6-6-6-6-6-6-6-6-6-4--4--4-4-4-4--4--4-4--4-------------|

[Dist]
"No te vayas ya, deja mirar tus ojos"
e--------------------------------------------------------------------|
B--------------------------------------------------------------------|
G-4-4-4-4-4-4-4-4-4-4-4-4-4-4-4-4------------------------------------|
D-4-4-4-4-4-4-4-4-4-4-4-4-4-4-4-4-2-2-2-2-2-2-2-2-2-2-2-2-2-2-2-2----|
A-2-2-2-2-2-2-2-2-2-2-2-2-2-2-2-2-2-2-2-2-2-2-2-2-2-2-2-2-2-2-2-2----|
D---------------------------------2-2-2-2-2-2-2-2-2-2-2-2-2-2-2-2----|

[Dist]
"volveras, solo dejame verte..."
e----------------------------------------------------------------------|
B----------------------------------------------------------------------|
G----------------------------------------------------------------------|
D-6-6-6-6-6-6-6-6-6-6-6-6-6-6-6-6-4--4--4-4-4-4--4--4-4--4-------------|
A-6-6-6-6-6-6-6-6-6-6-6-6-6-6-6-6-4--4--4-4-4-4--4--4-4--4-------------|
D-6-6-6-6-6-6-6-6-6-6-6-6-6-6-6-6-4--4--4-4-4-4--4--4-4--4-------------|

e---------------------------------------|
B---------------------------------------|
G---------------------------------------|
D-4--4--4-4-4-4--4--4-4--4---4~~~-------|
A-4--4--4-4-4-4--4--4-4--4---4~~~-------|
D-4--4--4-4-4-4--4--4-4--4---4~~~-------|
Tap to rate this tab
 
# A B C D E F G H I J K L M N O P Q R S T U V W X Y Z