Guitaretab - guitar tabs
Song name
# A B C D E F G H I J K L M N O P Q R S T U V W X Y Z

Allison - Me Cambi tab

Allison
Título:Me cambio
Transcripción: Miguel Angel (Maicol)
Esta cancion es d mis preferidas y esta muy facil de aprender. Un grupo muy bno,lo recomiendo. 

Intro:
Las 2 guitarras
E|------------------------------------------------------------|2
B|------------------------------------------------------------|V
G|-------------44444444--55555555--9999--7777-----------------|E
D|---55555555--44444444--55555555--9999--7777-----------------|C
A|---55555555--22222222--33333333--7777--5555-----------------|E
E|---33333333-------------------------------------------------|S

1a Guitarra
E|------------------------------------------------------------|
B|------------------------------------------------------------|
G|-------------4---------5---------9-----7-----5~-------------|
D|---5---------4---------5---------9-----7-----5~-------------|
A|---5---------2---------3---------7-----5-----3~-------------|
E|---3--------------------------------------------------------|
2a Guitarra
E|------------------------------------------------------------|
B|------------------------------------------------------------|
G|------------------------------------------------------------|
D|------------------------------------------------------------|
A|---------------2222222--3333333---7777--5555----------------|
E|-----3333333------------------------------------------------|
PM:.............................................

-----------------------------------------------------------------------
Primer Verso
2a Guitarra
E|------------------------------------------------------------|
B|------------------------------------------------------------|
G|------------------------------------------------------------|
D|------------------------------------------------------------|
A|---------------2222222--3333333---7777--5555----------------|
E|-----3333333------------------------------------------------|
PM:...........................................
--------------------------------------------------------------------
Coro
E|------------------------------------------------------------|2
B|------------------------------------------------------------|V
G|-------------44444444--55555555--9999--7777-----------------|E
D|---55555555--44444444--55555555--9999--7777-----------------|C
A|---55555555--22222222--33333333--7777--5555-----------------|E
E|---33333333-------------------------------------------------|S
2a Guitarra 
E|------------------------------------------------------------|
B|------------------------------------------------------------|
G|------------------------------------------------------------|
D|---4h5--5-5-5-5-5-5-5|x3-------5--4--0~---------------------|
A|------------------------------------------------------------|
E|------------------------------------------------------------|
PM:...........................................
---------------------------------------------------------------------
[ Tab from: http://www.guitaretab.com/a/allison/76699.html ]
El segundo verso es puro bajeo...
E|------------------------------------------------------------|
B|------------------------------------------------------------|
G|------------------------------------------------------------|
D|------------------------------------------------------------|
A|---------------2222222--3333333---7777--5555----------------|
E|-----3333333------------------------------------------------|


---------------------------------------------------------------------
Coro
E|------------------------------------------------------------|2
B|------------------------------------------------------------|V
G|-------------44444444--55555555--9999--7777-----------------|E
D|---55555555--44444444--55555555--9999--7777-----------------|C
A|---55555555--22222222--33333333--7777--5555-----------------|E
E|---33333333-------------------------------------------------|S
2a Guitarra 
E|------------------------------------------------------------|
B|------------------------------------------------------------|
G|------------------------------------------------------------|
D|---4h5--5-5-5-5-5-5-5|x3-------5--4--0~---------------------|
A|------------------------------------------------------------|
E|------------------------------------------------------------|
PM:...........................................
--------------------------------------------------------------------
Esto lo tok la primera guitarra
E|-----------------------------------------------------|4
B|-----------------------------------------------------|V
G|----------------5--5-------9----9--------7-----7-----|E
D|-----5---5-----5-5--------9--9----------7--7---------|C
A|----5--5------3---3------7----7--------5-----5-------|E
E|---3----3--------------------------------------------|S

Esto lo tok la segunda guitarra despues d tokr una vez la primera...
E|-----------------------------------------------------|2
B|--------8-7------8-7--------8-7--0------8-7---8/10---|V
G|------------7---------5------------------------------|E
D|-----------------------------------------------------|C
A|-----------------------------------------------------|E
E|-----------------------------------------------------|S

--------------------------------------------------------------------
Outro

E|------------------------------------------------------------|4
B|------------------------------------------------------------|V
G|-------------44444444--55555555--9999--7777-----------------|E
D|---55555555--44444444--55555555--9999--7777-----------------|C
A|---55555555--22222222--33333333--7777--5555-----------------|E
E|---33333333-------------------------------------------------|S
2a Guitarra
E|------------------------------------------------------------|
B|----8---7--|---------8--7------7----------------------------|
G|----------7|x3----------------------------------------------|
D|------------------------------------------------------------|
A|------------------------------------------------------------|
E|------------------------------------------------------------|

Es mi primera tab asi k si tienen comentarios o correcciones mandenlas a magu6969_2@hotmail.com
Related for Me Cambi tab