Song name
# A B C D E F G H I J K L M N O P Q R S T U V W X Y Z

Allison - Mi Negra tab

hoLA A TOOS SOI MARIO PIZARRO...WENO A TAN LOS TABS PE...Q TANTO M RECLAMABAN.....
g1:david carranza
g2:mario pizarro


intro:ambas guitarras
--------------------------------------------------------------|
--------------------------------------------------------------|
------5x4x3---------------------------------------------------|
-6x6x-5x4x3---------------------------------------------------|X3
-6x6x-3x2x1---------------------------------------------------|
-4x4x---------------------------------------------------------|
PM..... .. .acompaņando por el cajon

pre verse:
G1 Y G2
--------------------------------------------------------------|
--------------------------------------------------------------|
------------------55555599999---------------------------------|
-6666666666555444-55555599999--77-----------------------------|
-6666666666555444-33333377777-777-----------------------------|
-4444444444333222------------5555-----------------------------|

CHORUS:
G1:
--------------------------------------------------------------|
--------------------------------------------------------------|
---------------------66666666666666666666---------------------|
-6666666666666666666666666666666666666666---------------------|
-6666666666666666666644444444444444444444---------------------|
-44444444444444444444-----------------------------------------|


RPT INTRO:

CHORUS:
G1 Y G2:
G2 usa PM
------------------------------------------------------------|
------------------------------------------------------------|
-----------------66666666666666666666-----------------------|
-666666666666666666666666666666666666-----------------------|
-666666666666666644444444444444444444-----------------------|
-4444444444444444-------------------------------------------|

SOLO:
G2 ACOMPAŅA CON EL CHORUS

----------------------------------------------------------|
----------------------------------------------------------|
----------------------------------------------------------|
--------5-------------------------------------------------|
----4-4--44---------------------------------9-12----------|
--3--------3-2-1-3-2-1-1-1-1-1--1-1-1-4-4--4--------------|


AHI TA PI:)....KUALKIER DUDA IA SABEN NO DUDEN N SCRIBIRM MI MSN S lamasacre7@hotmail.com...
Tap to rate this tab
# A B C D E F G H I J K L M N O P Q R S T U V W X Y Z