Song name
# A B C D E F G H I J K L M N O P Q R S T U V W X Y Z

Allison - Me Cambi Acoustic tab

Help us improve GuitareTab! Take a short survey!
Highlighted       Show chord diagrams
Hi my friends This is my first tab and I think it sounds pretty darn close to how 
they play it. Correct me if it is necessary =). So enjoy it!
Tonalli mija esto no t lo dedico =)
-------------------------------------------------------------------------------
			     Me Cambio Acustico - Allison
------------------------------------------------------------------------------
Tabbed by: Sosa
Email: ricardo_3177@hotmail.com

Tuning:Half Step (D# - G# - C# - F# - A# - D#)
Chords:

    G      G/B    C9    Em7   D
e|--3-------3------3-----3----2----------------------------------------------|
B|--3-------3------3-----3----3----------------------------------------------|
G|--0-------0------0-----0----2----------------------------------------------|
D|--0-------x------2-----2----0----------------------------------------------|
A|--2-------2------3-----2----x----------------------------------------------|
E|--3-------x------x-----0----x----------------------------------------------|


Intro: G - G/B - C9 - Em7 - D

Verse:
G
Pues me cambio 
C9
Todo por un auto nuevo 
Em7                   D
Dinero y lujos que no pude darle 
G                  C9
Maldita sea me cambio (Me cambioooooo) 

Em7              D 
Lo mio era amor y ella 

Chorus:
       G      C9      Em7     D  
Lo tiroo oh oh oh oh oh oh oh oh
G        C9        Em7      D
oh oh oh oh oh oh oh oh oh oh

Verse:

G
Ayer la vi 
C9
Estaba sobre su auto nuevo 
Em7
Mirando el cielo 
        D
Y dando su reflejo 
G                     C9
Al verme de mi se acordo  (Se acordoooooooo)

Em7              D 
Lo mio era amor y ella 

Chorus:

       G      C9      Em7     D  
Lo tiroo oh oh oh oh oh oh oh oh
G        C9        Em7      D
oh oh oh oh oh oh oh oh oh oh

Bridge:
   G                       C9                           Em7 
e|---------------------------------------------------------------------------|
B|-----------------------------------------------------0------------0--------|
G|---------0------0----------------0-------0----------------0----------0-----|
D|-----0--------------0--------0--------------0------------------------------|
A|-------------------------3-----------3------------7------------7-----------|
E|--3---------3--------------------------------------------------------------|

   D
e|---------------------------------------------------------------------------|
B|---------------------------------------------------------------------------|
G|------2------------2-------------------------------------------------------|
D|---------5--------------5--------------------------------------------------|
A|-5------------5------------------------------------------------------------|
E|---------------------------------------------------------------------------|
(Arpegiado)
G - C9 - Em7 - D x3

G           
Nunca me amo 
C9         
Solo me uso 
Em7
Era interes 
D               G     C9    Em7   D
Mas no era amo oh oh oh oh oh oh oh oh
 G     C9    Em7   D
oh oh oh oh oh oh oh oh 

(Rasgueado)
G     C9    Em7   D
oh oh oh oh oh oh oh oh 
G     C9    Em7   D
oh oh oh oh oh oh oh oh 

G - C9 - Em7 - D (x2)

Related for Me Cambi Acoustic tab