Song name
# A B C D E F G H I J K L M N O P Q R S T U V W X Y Z

Allison - Mi Destino Acoustic tab

Q onda espero q les sirva mi transcripcion (La guitarra va afinada en bemol) Corrijanme si es necesario.
Saludos a Patricio, Mau, Hector y a todos!!!!


-------------------------------------------------------------------------------
			     Mi Destino - Allison
-------------------------------------------------------------------------------
Tabbed by: Sosa
Email: ricardo_3177@hotmail.com

Tuning: Half Step (D# - G# - C# - F# - A# - D#)

Chords:

    Em7   C9     G     D4sus   G/F#
e|---3-----3-----3-----3--------3--------------------------------------------|
B|---3-----3-----3-----3--------3--------------------------------------------|
G|---0-----0-----0-----2--------0--------------------------------------------|
D|---2-----2-----0-----0--------0--------------------------------------------|
A|---2-----3-----2-----x--------x--------------------------------------------|
E|---0-----x-----3-----x--------2--------------------------------------------|

Intro:

    Em7           C9            G             D4sus
e|---------------------------------------------------------------------------|
B|---------------------------------------------------------------------------|
G|---------------------------------------------------------------------------|
D|---2-----4h5-----------4h5----------4h5-----4------------------------------|
A|-----------------3---------------------------------------------------------|
E|------------------------------3--------------------------------------------|


Verse:

Em7          C9                       G
Ya no soy la misma alma que tuviste junto a ti
   D4sus                      C9
el esclavo amoroso en que me converti
Em7                 G
todo lo que fui lo hice por ti
D4sus
lo hice por ti

Chorus:

Em7
Ya no siento que estoi vivo
C9
tu controlas mi camino
G                          G/F#
y tu recuerdo esta sentado aqui conmigo
Em7
ya no se si tengo ganas
C9
solo se que estoy de malas
G                        G/F#
tu recuerdo esta sentado aqui conmigo..

(Intro)

Verse:

   Em7        C9                          G
ya no quieroo seguir sintiendo este dolor dentro de mi
    D4sus                        Em7
recordar que casi muero cuando te perdi
   C9                           G
mi alma esta sufriendo y es por ti
D4sus
y es por ti
    C9         Em7
y ahora no .. no queda mas no queda mas
G                   D4sus
que un simple recuerdo

Chorus:

Em7
ya no siento que estoi vivo
C9
tu controlas mi camino
G                           G/F#
y tu recuerdo esta sentado aqui conmigo
Em7
ya no se si tengo ganas
C9
solo se que estoy de malas
G                          G/F#
tu recuerdo esta sentado aqui conmigo..

Bridge:

    Em7
e|--3p2-------3p2-------3p2------3p2------3p2--------------------------------|
B|-------3---------3---------3--------3--------3-----------------------------|
G|---------------------------------------------------------------------------|
D|---------------------------------------------------------------------------|
A|---------------------------------------------------------------------------|
E|---------------------------------------------------------------------------|



    C9
e|--3p2-------3p2-------3p2------3p2------3p2--------------------------------|
B|-------3---------3---------3--------3--------3-----------------------------|
G|---------------------------------------------------------------------------|
D|---------------------------------------------------------------------------|
A|---------------------------------------------------------------------------|
E|---------------------------------------------------------------------------|


Tap to rate this tab
# A B C D E F G H I J K L M N O P Q R S T U V W X Y Z