Song name
# A B C D E F G H I J K L M N O P Q R S T U V W X Y Z

Allister - Jimmys Dream Girl tab

#----------------------------------PLEASE NOTE---------------------------------#
#This file is the author's own work and represents their interpretation of the #
#song. You may only use this file for private study, scholarship, or research. #
#------------------------------------------------------------------------------##

                                JIMMY'S DREAMGIRL
                             As recorded by Allister
                 (From the 1999 Album DEAD ENDS AND GIRLFRIENDS)

Music by Allister
Transcribed by Travis Nutt

Gtr I (E A D G B E) - 'Guitar 1'
Gtr II (E A D G B E) - 'Guitar 2'
Gtr III (E A D G B E) - 'Guitar 3'

 Intro
  Fast Rock Q=170
 4/4
             Gtr III
  W          E.    E.   E E.    E.   E   E.    E.   E E.   E.    E
|----------|---------------------------|---------------------------|
|----------|------------8------------8-|------------8-9----8-------|
|----------|-8----10------8----10------|-8----10----------------10-|
|----------|---------------------------|---------------------------|
|----------|---------------------------|---------------------------|
|----------|---------------------------|---------------------------|
|
|            Gtrs I, II
| W          E  S  S  E E E  S  S  E E   E  S  S  E E E  S S  E  E
|----------|---------------------------|---------------------------|
|----------|---------------------------|---------------------------|
|----------|-8--8--8--8-8--------------|---------------------------|
|----------|-8--8--8--8-8-8--8--8--8-8-|-6--6--6--6-6-8--8-8--8--8-|
|----------|-6--6--6--6-6-8--8--8--8-8-|-6--6--6--6-6-8--8-8--8--8-|
|----------|--------------6--6--6--6-6-|-4--4--4--4-4-6--6-6--6--6-|


  E.    E.   E E.    E.   E   H     E. E. E
|---------------------------|------------------|
|------------8------------8-|------------------|
|-8----10------8----10------|-8----10--8--7----|
|---------------------------|------------------|
|---------------------------|------------------|
|---------------------------|------------------|
|
| E  S  S  E E E  S  S  E E   H     H
|---------------------------|------------------|
|---------------------------|------------------|
|-8--8--8--8-8--------------|------------------|
|-8--8--8--8-8-8--8--8--8-8-|-6-----8----------|
|-6--6--6--6-6-8--8--8--8-8-|-6-----8----------|
|--------------6--6--6--6-6-|-4-----6----------|


  E.    E.   E E.    E.   E   E.    E.   E E.   E.    E
|---------------------------|---------------------------|
|------------8------------8-|------------8-9----8-------|
|-8----10------8----10------|-8----10----------------10-|
|---------------------------|---------------------------|
|---------------------------|---------------------------|
|---------------------------|---------------------------|
|
| E  S  S  E E E  S  S  E E   E  S  S  E E E  S S  E  E
|---------------------------|---------------------------|
|---------------------------|---------------------------|
|-8--8--8--8-8--------------|---------------------------|
|-8--8--8--8-8-8--8--8--8-8-|-6--6--6--6-6-8--8-8--8--8-|
|-6--6--6--6-6-8--8--8--8-8-|-6--6--6--6-6-8--8-8--8--8-|
|--------------6--6--6--6-6-|-4--4--4--4-4-6--6-6--6--6-|


  E.    E.   E E.    E.   E   H     E. E. E
|---------------------------|----------------|
|------------8------------8-|----------------|
|-8----10------8----10------|-8----10--8--7--|
|---------------------------|----------------|
|---------------------------|----------------|
|---------------------------|----------------|
|
| E  S  S  E E E  S  S  E E   H     H
|---------------------------|----------------|
|---------------------------|----------------|
|-8--8--8--8-8--------------|----------------|
|-8--8--8--8-8-8--8--8--8-8-|-6-----8--------|
|-6--6--6--6-6-8--8--8--8-8-|-6-----8--------|
|--------------6--6--6--6-6-|-4-----6--------|


 Verse 1
  >
  W                     +W
|---------------------|-----------------------|
|---------------------|-----------------------|
|-8-------------------|-(8)-------------------|
|---------------------|-----------------------|
|---------------------|-----------------------|
|---------------------|-----------------------|
|
| E S S E E E S S E E    E  S S E E E S S E E
|---------------------|-----------------------|
|---------------------|-----------------------|
|-8-8-8-8-8-----------|-----------------------|
|-8-8-8-8-8-8-8-8-8-8-|--6--6-6-6-6-8-8-8-8-8-|
|-6-6-6-6-6-8-8-8-8-8-|--6--6-6-6-6-8-8-8-8-8-|
|-----------6-6-6-6-6-|--4--4-4-4-4-6-6-6-6-6-|


  +W                      W
|-----------------------|----------------------|
|-----------------------|----------------------|
|-(8)-------------------|----------------------|
|-----------------------|----------------------|
|-----------------------|----------------------|
|-----------------------|----------------------|
|
|  E  S S E E E S S E E   E S S E E E S S E E
|-----------------------|----------------------|
|-----------------------|----------------------|
|--8--8-8-8-8-----------|----------------------|
|--8--8-8-8-8-8-8-8-8-8-|-6-6-6-6-6-8-8-8-8-8--|
|--6--6-6-6-6-8-8-8-8-8-|-6-6-6-6-6-8-8-8-8-8--|
|-------------6-6-6-6-6-|-4-4-4-4-4-6-6-6-6-6--|


  Gtrs I, II
  E S S E E E S S E E   E S S E E E S S E E
|---------------------|---------------------|
|---------------------|---------------------|
|-8-8-8-8-8-----------|---------------------|
|-8-8-8-8-8-8-8-8-8-8-|-6-6-6-6-6-8-8-8-8-8-|
|-6-6-6-6-6-8-8-8-8-8-|-6-6-6-6-6-8-8-8-8-8-|
|-----------6-6-6-6-6-|-4-4-4-4-4-6-6-6-6-6-|


  E S S E E E S S E E   E S S E E E S S E E
|---------------------|----------------------|
|---------------------|----------------------|
|-8-8-8-8-8-----------|----------------------|
|-8-8-8-8-8-8-8-8-8-8-|-6-6-6-6-6-8-8-8-8-8--|
|-6-6-6-6-6-8-8-8-8-8-|-6-6-6-6-6-8-8-8-8-8--|
|-----------6-6-6-6-6-|-4-4-4-4-4-6-6-6-6-6--|


 Chorus
  E S S E E E S S E E   E S S E E E S S E E
|---------------------|---------------------|
|---------------------|---------------------|
|-8-8-8-8-8-----------|---------------------|
|-8-8-8-8-8-8-8-8-8-8-|-6-6-6-6-6-8-8-8-8-8-|
|-6-6-6-6-6-8-8-8-8-8-|-6-6-6-6-6-8-8-8-8-8-|
|-----------6-6-6-6-6-|-4-4-4-4-4-6-6-6-6-6-|


  E S S E E E S S E E   E S S E E E S S E E
|---------------------|----------------------|
|---------------------|----------------------|
|-8-8-8-8-8-----------|----------------------|
|-8-8-8-8-8-8-8-8-8-8-|-6-6-6-6-6-8-8-8-8-8--|
|-6-6-6-6-6-8-8-8-8-8-|-6-6-6-6-6-8-8-8-8-8--|
|-----------6-6-6-6-6-|-4-4-4-4-4-6-6-6-6-6--|


  E Q.   E Q.     E E E E H      E S S E E E S S E E
|---------------|--------------|---------------------|
|---------------|--------------|---------------------|
|---------------|-8------------|---------------------|
|-6------8------|-8---8---6----|-6-6-6-6-6-8-8-8-8-8-|
|-6------8------|-6---8---6----|-6-6-6-6-6-8-8-8-8-8-|
|-4------6------|-----6---4----|-4-4-4-4-4-6-6-6-6-6-|


  E S S E E E S S E E   E S S E E E S S E E   E S S E E E S S E E   H    H
|---------------------|---------------------|---------------------|-----------||
|---------------------|---------------------|---------------------|-----------||
|-8-8-8-8-8-----------|---------------------|-8-8-8-8-8-----------|-----------||
|-8-8-8-8-8-8-8-8-8-8-|-6-6-6-6-6-8-8-8-8-8-|-8-8-8-8-8-8-8-8-8-8-|-6----8----||
|-6-6-6-6-6-8-8-8-8-8-|-6-6-6-6-6-8-8-8-8-8-|-6-6-6-6-6-8-8-8-8-8-|-6----8----||
|-----------6-6-6-6-6-|-4-4-4-4-4-6-6-6-6-6-|-----------6-6-6-6-6-|-4----6----||


   Verse 2
    E S S E E E S S E E   E S S E E E S S E E
||----------------------|---------------------|
||o---------------------|---------------------|
||--8-8-8-8-8-----------|---------------------|
||--8-8-8-8-8-8-8-8-8-8-|-6-6-6-6-6-8-8-8-8-8-|
||o-6-6-6-6-6-8-8-8-8-8-|-6-6-6-6-6-8-8-8-8-8-|
||------------6-6-6-6-6-|-4-4-4-4-4-6-6-6-6-6-|


  E S S E E E S S E E   E S S E E E S S E E
|---------------------|----------------------||
|---------------------|---------------------o||
|-8-8-8-8-8-----------|----------------------||
|-8-8-8-8-8-8-8-8-8-8-|-6-6-6-6-6-8-8-8-8-8--||
|-6-6-6-6-6-8-8-8-8-8-|-6-6-6-6-6-8-8-8-8-8-o||
|-----------6-6-6-6-6-|-4-4-4-4-4-6-6-6-6-6--||


 Chorus
  E S S E E E S S E E   E S S E E E S S E E
|---------------------|---------------------|
|---------------------|---------------------|
|-8-8-8-8-8-----------|---------------------|
|-8-8-8-8-8-8-8-8-8-8-|-6-6-6-6-6-8-8-8-8-8-|
|-6-6-6-6-6-8-8-8-8-8-|-6-6-6-6-6-8-8-8-8-8-|
|-----------6-6-6-6-6-|-4-4-4-4-4-6-6-6-6-6-|


  E S S E E E S S E E   E S S E E E S S E E
|---------------------|----------------------|
|---------------------|----------------------|
|-8-8-8-8-8-----------|----------------------|
|-8-8-8-8-8-8-8-8-8-8-|-6-6-6-6-6-8-8-8-8-8--|
|-6-6-6-6-6-8-8-8-8-8-|-6-6-6-6-6-8-8-8-8-8--|
|-----------6-6-6-6-6-|-4-4-4-4-4-6-6-6-6-6--|


  E Q.   E Q.     Q  Q  H      E S S E E E S S E E
|---------------|------------|---------------------|
|---------------|------------|---------------------|
|---------------|-8----------|---------------------|
|-6------8------|-8--8--6----|-6-6-6-6-6-8-8-8-8-8-|
|-6------8------|-6--8--6----|-6-6-6-6-6-8-8-8-8-8-|
|-4------6------|----6--4----|-4-4-4-4-4-6-6-6-6-6-|


  E S S E E E S S E E   E S S E E E S S E E   E S S E E E S S E E
|---------------------|---------------------|---------------------|
|---------------------|---------------------|---------------------|
|-8-8-8-8-8-----------|---------------------|-8-8-8-8-8-----------|
|-8-8-8-8-8-8-8-8-8-8-|-6-6-6-6-6-8-8-8-8-8-|-8-8-8-8-8-8-8-8-8-8-|
|-6-6-6-6-6-8-8-8-8-8-|-6-6-6-6-6-8-8-8-8-8-|-6-6-6-6-6-8-8-8-8-8-|
|-----------6-6-6-6-6-|-4-4-4-4-4-6-6-6-6-6-|-----------6-6-6-6-6-|


    PM--------|   PM--------|     PM--------|   PM--------|
  E S S S S S S E S S S S S S   E S S S S S S E S S S S S S
|-----------------------------|-----------------------------||
|-----------------------------|-----------------------------||
|-----------------------------|-----------------------------||
|-6-------------6-------------|-8-------------8-------------||
|-6-------------6-------------|-8-------------8-------------||
|-4-4-4-4-4-4-4-4-4-4-4-4-4-4-|-6-6-6-6-6-6-6-6-6-6-6-6-6-6-||


 Out-Chorus
  E S S E E E S S E E   E S S E E E S S E E
|---------------------|---------------------|
|---------------------|---------------------|
|-8-8-8-8-8-----------|---------------------|
|-8-8-8-8-8-8-8-8-8-8-|-6-6-6-6-6-8-8-8-8-8-|
|-6-6-6-6-6-8-8-8-8-8-|-6-6-6-6-6-8-8-8-8-8-|
|-----------6-6-6-6-6-|-4-4-4-4-4-6-6-6-6-6-|


  E S S E E E S S E E   E S S E E E S S E E
|---------------------|----------------------|
|---------------------|----------------------|
|-8-8-8-8-8-----------|----------------------|
|-8-8-8-8-8-8-8-8-8-8-|-6-6-6-6-6-8-8-8-8-8--|
|-6-6-6-6-6-8-8-8-8-8-|-6-6-6-6-6-8-8-8-8-8--|
|-----------6-6-6-6-6-|-4-4-4-4-4-6-6-6-6-6--|


  E S S E E E S S E E   Q  Q  E S S E E
|---------------------|-----------------|
|---------------------|-----------------|
|---------------------|-8---------------|
|-6-6-6-6-6-8-8-8-8-8-|-8--8--6-6-6-6-6-|
|-6-6-6-6-6-8-8-8-8-8-|-6--8--6-6-6-6-6-|
|-4-4-4-4-4-6-6-6-6-6-|----6--4-4-4-4-4-|


  E S S E E E S S E E   E S S E E E S S E E
|---------------------|-----------------------|
|---------------------|-----------------------|
|---------------------|-----------------------|
|-6-6-6-6-6-8-8-8-8-8-|-6-6-6-6-6-8-8-8-8-8---|
|-6-6-6-6-6-8-8-8-8-8-|-6-6-6-6-6-8-8-8-8-8---|
|-4-4-4-4-4-6-6-6-6-6-|-4-4-4-4-4-6-6-6-6-6---|


  E S S E E E S S E E   E S S E E E Q.
|---------------------|------------------*|
|---------------------|------------------*|
|---------------------|-8-8-8-8-8-8------*|
|-6-6-6-6-6-8-8-8-8-8-|-8-8-8-8-8-8------*|
|-6-6-6-6-6-8-8-8-8-8-|-6-6-6-6-6-6------*|
|-4-4-4-4-4-6-6-6-6-6-|------------------*|
Tap to rate this tab
# A B C D E F G H I J K L M N O P Q R S T U V W X Y Z