Song name
# A B C D E F G H I J K L M N O P Q R S T U V W X Y Z

Allister - Miz tab

                                       MIZ
                             As recorded by Allister
                 (From the 1999 Album DEAD ENDS AND GIRLFRIENDS)

Music by Allister
Transcribed by Travis Nutt

 Intro
  Fast Rock Q=108
 4/4
  Gtr I
  S S S S S S S S S S S S E E   S S S S S S S S S S S S E E
|-----------------------------|-----------------------------||
|-----------------------------|-----------------------------||
|-------------------------5---|-------------------------5---||
|-5-5-5-5-5-5-5-5-5-5-5-5-5-3-|-5-5-5-5-5-5-5-5-5-5-5-5-5-3-||
|-5-5-5-5-5-5-5-5-5-5-5-5-3-3-|-5-5-5-5-5-5-5-5-5-5-5-5-3-3-||
|-3-3-3-3-3-3-3-3-3-3-3-3---1-|-3-3-3-3-3-3-3-3-3-3-3-3---1-||


 Verse 1, 2
  $
  Gtrs I, II
  S S S S S S S S S S S S E E   S S S S S S S S S S S S E E
|-----------------------------|-----------------------------|
|-----------------------------|-----------------------------|
|-------------------------5---|-------------------------5---|
|-5-5-5-5-5-5-5-5-5-5-5-5-5-3-|-5-5-5-5-5-5-5-5-5-5-5-5-5-3-|
|-5-5-5-5-5-5-5-5-5-5-5-5-3-3-|-5-5-5-5-5-5-5-5-5-5-5-5-3-3-|
|-3-3-3-3-3-3-3-3-3-3-3-3---1-|-3-3-3-3-3-3-3-3-3-3-3-3---1-|


  S S S S S S S S S S S S E E   S S S S S S S S S S S S E E
|-----------------------------|-----------------------------||
|-----------------------------|-----------------------------||
|-------------------------5---|-------------------------5---||
|-5-5-5-5-5-5-5-5-5-5-5-5-5-3-|-5-5-5-5-5-5-5-5-5-5-5-5-5-3-||
|-5-5-5-5-5-5-5-5-5-5-5-5-3-3-|-5-5-5-5-5-5-5-5-5-5-5-5-3-3-||
|-3-3-3-3-3-3-3-3-3-3-3-3---1-|-3-3-3-3-3-3-3-3-3-3-3-3---1-||


 Pre-Chorus
  S S S S S S S S S S S S S S S S   S S S S S S S S S S S S S S S S
|---------------------------------|---------------------------------|
|---------------------------------|---------------------------------|
|-----------------5-5-5-5-5-5-5-5-|---------------------------------|
|-2-2-2-2-2-2-2-2-5-5-5-5-5-5-5-5-|-5-5-5-5-5-5-5-5-3-3-3-3-3-3-3-3-|
|-2-2-2-2-2-2-2-2-3-3-3-3-3-3-3-3-|-5-5-5-5-5-5-5-5-3-3-3-3-3-3-3-3-|
|-0-0-0-0-0-0-0-0-----------------|-3-3-3-3-3-3-3-3-1-1-1-1-1-1-1-1-|


  S S S S S S S S S S S S S S S S   S S S S S S S S S Q..
|---------------------------------|--------------------------||
|---------------------------------|--------------------------||
|-----------------5-5-5-5-5-5-5-5-|-7-7-7-7-7-7-7-7-7--------||
|-2-2-2-2-2-2-2-2-5-5-5-5-5-5-5-5-|-7-7-7-7-7-7-7-7-7--------||
|-2-2-2-2-2-2-2-2-3-3-3-3-3-3-3-3-|-5-5-5-5-5-5-5-5-5--------||
|-0-0-0-0-0-0-0-0-----------------|--------------------------||


 Chorus
  S S S S S S S S S S S S S S S S   S S S S S S S S S S S S S S S S
|---------------------------------|---------------------------------|
|---------------------------------|---------------------------------|
|---------------------------------|-2-2-2-2-2-2-2-2-5-5-5-5-5-5-5-5-|
|-5-5-5-5-5-5-5-5-2-2-2-2-2-2-2-2-|-2-2-2-2-2-2-2-2-5-5-5-5-5-5-5-5-|
|-5-5-5-5-5-5-5-5-2-2-2-2-2-2-2-2-|-0-0-0-0-0-0-0-0-3-3-3-3-3-3-3-3-|
|-3-3-3-3-3-3-3-3-0-0-0-0-0-0-0-0-|---------------------------------|


  S S S S S S S S S S S S S S S S   S S S S S S S S S S S S S S S S
|---------------------------------|---------------------------------|
|---------------------------------|---------------------------------|
|---------------------------------|-2-2-2-2-2-2-2-2-5-5-5-5-5-5-5-5-|
|-5-5-5-5-5-5-5-5-2-2-2-2-2-2-2-2-|-2-2-2-2-2-2-2-2-5-5-5-5-5-5-5-5-|
|-5-5-5-5-5-5-5-5-2-2-2-2-2-2-2-2-|-0-0-0-0-0-0-0-0-3-3-3-3-3-3-3-3-|
|-3-3-3-3-3-3-3-3-0-0-0-0-0-0-0-0-|---------------------------------|


                                                      D.S.
  S S S S S S S S S S S S E E   S S S S S S S S S S S S E E
|-----------------------------|-----------------------------||
|-----------------------------|-----------------------------||
|-------------------------5---|-------------------------5---||
|-5-5-5-5-5-5-5-5-5-5-5-5-5-3-|-5-5-5-5-5-5-5-5-5-5-5-5-5-3-||
|-5-5-5-5-5-5-5-5-5-5-5-5-3-3-|-5-5-5-5-5-5-5-5-5-5-5-5-3-3-||
|-3-3-3-3-3-3-3-3-3-3-3-3---1-|-3-3-3-3-3-3-3-3-3-3-3-3---1-||


 Verse 3
              >
  W          +W           +W           +W
|----------|------------|------------|--------||
|----------|------------|------------|--------||
|----------|------------|------------|--------||
|-5--------|-(5)--------|-(5)--------|-(5)----||
|-5--------|-(5)--------|-(5)--------|-(5)----||
|-3--------|-(3)--------|-(3)--------|-(3)----||


 Pre-Chorus
    PM----------|   PM----------|     PM----------|   PM----------|
  S S S S S S S S S S S S S S S S   S S S S S S S S S S S S S S S S
|---------------------------------|-----------------------------------|
|---------------------------------|-----------------------------------|
|-----------------5---------------|-----------------------------------|
|-2---------------5-5-5-5-5-5-5-5-|-5---------------3-----------------|
|-2-2-2-2-2-2-2-2-3-3-3-3-3-3-3-3-|-5-5-5-5-5-5-5-5-3-3-3-3-3-3-3-3---|
|-0-0-0-0-0-0-0-0-----------------|-3-3-3-3-3-3-3-3-1-1-1-1-1-1-1-1---|


    PM----------|   PM----------|     PM----------|
  S S S S S S S S S S S S S S S S   S S S S S S S S S Q..
|---------------------------------|--------------------------||
|---------------------------------|--------------------------||
|-----------------5---------------|-7---------------7--------||
|-2---------------5-5-5-5-5-5-5-5-|-7-7-7-7-7-7-7-7-7--------||
|-2-2-2-2-2-2-2-2-3-3-3-3-3-3-3-3-|-5-5-5-5-5-5-5-5-5--------||
|-0-0-0-0-0-0-0-0-----------------|--------------------------||


 Out-Chorus
  S S S S S S S S S S S S S S S S   S S S S S S S S S S S S S S S S
|---------------------------------|---------------------------------|
|---------------------------------|---------------------------------|
|---------------------------------|-2-2-2-2-2-2-2-2-5-5-5-5-5-5-5-5-|
|-5-5-5-5-5-5-5-5-2-2-2-2-2-2-2-2-|-2-2-2-2-2-2-2-2-5-5-5-5-5-5-5-5-|
|-5-5-5-5-5-5-5-5-2-2-2-2-2-2-2-2-|-0-0-0-0-0-0-0-0-3-3-3-3-3-3-3-3-|
|-3-3-3-3-3-3-3-3-0-0-0-0-0-0-0-0-|---------------------------------|


  S S S S S S S S S S S S S S S S   S S S S S S S S S S S S S S S S
|---------------------------------|---------------------------------|
|---------------------------------|---------------------------------|
|---------------------------------|-2-2-2-2-2-2-2-2-5-5-5-5-5-5-5-5-|
|-5-5-5-5-5-5-5-5-2-2-2-2-2-2-2-2-|-2-2-2-2-2-2-2-2-5-5-5-5-5-5-5-5-|
|-5-5-5-5-5-5-5-5-2-2-2-2-2-2-2-2-|-0-0-0-0-0-0-0-0-3-3-3-3-3-3-3-3-|
|-3-3-3-3-3-3-3-3-0-0-0-0-0-0-0-0-|---------------------------------|


  S S S S S S S S S S S S E E   E H..
|-----------------------------|----------*|
|-----------------------------|----------*|
|-------------------------5---|----------*|
|-5-5-5-5-5-5-5-5-5-5-5-5-5-3-|-5--------*|
|-5-5-5-5-5-5-5-5-5-5-5-5-3-3-|-5--------*|
|-3-3-3-3-3-3-3-3-3-3-3-3---1-|-3--------*|
Tap to rate this tab
 
# A B C D E F G H I J K L M N O P Q R S T U V W X Y Z