Song name
# A B C D E F G H I J K L M N O P Q R S T U V W X Y Z

Allister - Pictures tab

Help us improve GuitareTab! Take a short survey!
Allister - Pictures
By:Andrew Mcshan(Guitarguyx182@aol.com)

Verse
e|------------------------------------------------------------------|
B|------------------------------------------------------------------|
G|-------------------------7----------9-----------------------------|
D|-7-----------4-----------7----------9-----------------------------|
A|-7-----------4-----------5----------7-----------------------------|
E|-5-----------2----------------------------------------------------|

Pre Chorus
e|------------------------------------------------------------------|
B|------------------------------------------------------------------|
G|-7----9----7---9----7-7-7--9-9-9----------------------------------|
D|-7----9----7---9----7-7-7--9-9-9----------------------------------|
A|-5----7----5---7----5-5-5--7-7-7----------------------------------|
E|------------------------------------------------------------------|

Chorus "I just wanna get Laid"
e|------------------------------------------------------------------|
B|------------------------------------------------------------------|
G|-------------------------7----------9--------------------7-9------|
D|-7-----------4-----------7----------9----x3--------------7-9------|
A|-7-----------4-----------5----------7--------------------5-7------|
E|-5-----------2----------------------------------------------------|

Solo
e|-9^---5--0-2-5-14-11/12-7/9/7-5/4/5-7-5-9-7-4-4-5-4---------------|
B|----------------------------------------------------2-2/3---------|
G|------------------------------------------------------------------|
D|------------------------------------------------------------------|
A|------------------------------------------------------------------|
E|------------------------------------------------------------------|
Related for Pictures tab