Song name
# A B C D E F G H I J K L M N O P Q R S T U V W X Y Z

Allister - Time After Time tab

Allister - Time After Time


Intro
e|---------------------------------------------------------------------------|
B|---------------------------------------------------------------------------|
G|--------------------5-5----------------------------------------------------|
D|---5--5-5-2-2--3-3--5-5-----x2----3-3-3-5-5-5-2-2-2-3-3-3--3-3-3-5-5-2-2---|
A|---5--5-5-2-2--3-3--3-3-----------3-3-3-5-5-5-2-2-2-3-3-3--3-3-3-5-5-2-2---|
E|---3--3-3-0-0--1-1----------------1-1-1-3-3-3-0-0-0-1-1-1--1-1-1-3-3-0-0---|
Verse
e|---------------------------------------------------------------------------|
B|---------------------------------------------------------------------------|
G|--7-7-7-5-5-5-9-7-7-7-5-5-5-7-7-7-5-5-5-9-7-7-7--------5-7-4-5-5-7-4-------|
D|--7-7-7-5-5-5-9-7-7-7-5-5-5-7-7-7-5-5-5-9-7-7-7--x2----5-7-4-5-5-7-4---x2--|
A|--5-5-5-3-3-3-7-5-5-5-3-3-3-5-5-5-3-3-3-7-5-5-5--------3-5-2-3-3-5-2-------|
E|---------------------------------------------------------------------------|
Chorus
e|---------------------------------------------------------------------------|
B|---------------------------------------------------------------------------|
G|-----------------------5-5-5-5---------------------------------------------|
D|-5-5-5-2-2-2--3--3-3-3-5-5-5-5---------------------------------------------|
A|-5-5-5-2-2-2--3--3-3-3-3-3-3-3---------------------------------------------|
E|-3-3-3-0-0-0--1--1-1-1-----------------------------------------------------|
Tap to rate this tab
 
# A B C D E F G H I J K L M N O P Q R S T U V W X Y Z