Guitaretab - guitar tabs
Song name
# A B C D E F G H I J K L M N O P Q R S T U V W X Y Z
Home / A / Allister / Stuck tab

Allister - Stuck tab

Allister  
Stuck
Tabbed By: Mike, whtsmyageagn182@hotmail.com
Standard Tuning

Intro  Gt 1
e-16--------------|--------------------|
B----16-14-13----|-------13-14-13-----|
G--------------13-|-13h15----------13--|
D-----------------|--------------------|
A-----------------|--------------------|
E-------x3--------|---------x1---------|

Gt 2
e------------------------------|
B------------------------------|
G--------666666----------------|
D-666666-666666-666666-333333--|
A-666666-444444-666666-333333--|
E-444444--------444444-111111--|

Verse
e---------------------------|
B---------------------------|
G------------------6-66/88--|
D-66----33----66---6-66/88--|
A-66----33----66---4-44/66--|
E-44----11----44------------|
[ Tab from: http://www.guitaretab.com/a/allister/122221.html ]
Pre-Chorus
e-------------------------------------|x16|-|
B-------------------------------------------|
G-66666666-88888888-------------------6-8--|
D-66666666-88888888-66666666-33333333-6-8--|
A-44444444-66666666-66666666-33333333-4-6--|
E-------------------44444444-11111111-------|

Chorus
e------------------|
B------------------|
G-----888-666-888--|
D-666-888-666-888--|
A-666-666-444-666--|
E-444--------------|

(Verse)
(Pre-Chorus)
(Chorus)

Fill
e-------------|
B-------------|
G-------------|
D-66666666-6--|
A-66666666-6--|
E-44444444-4--|




Bridge
e----------------------------------------
B----------------------------------------
G------------6-66------8-88888-6-66------
D-6/5-333333-6-66-6-66-8-88888-6-66-6-66-
A-6/5-333333-4-44-6-66-6-66666-4-44-6-66-
E-4/3-111111------4-44--------------4-44-

Bridge(cont)
e--------------------------------------------------
B--------------------------------------------------
G-------6-66------8888/10101010/12121212/13131313--
D-xx-33-6-66-6-66-xxxx/-x-x-x-x/-x-x-x-x/-x-x-x-x--
A-xx-33-4-44-6-66-6666/-8-8-8-8/10101010/11111111--
E-xx-11------4-44----------------------------------

(Chorus)

I'm not shure on the lead part of the chorus but im giving u the basis of
the song since i havent seen it yet.
Related for Stuck tab