Song name
# A B C D E F G H I J K L M N O P Q R S T U V W X Y Z

Allister - Alone tab

Help us improve GuitareTab! Take a short survey!
Hey there, I love this song and I wanted to learn it but I didn't find any tab so I 
to tab it on my own.
I think this is 99% correct. It took me a half day and it was quite hard so I hope U R 
like it :)


INTRO:

Gtr 1

e|----------------------------------------------------------------------------|
B|----------------------------------------------------------------------------|
G|---4-4-4-4-4-11111111----------11111111----------1111111-9-9-9-8-4-9-9-9-8-4|
D|---4-4-4-4-4-x-x-x-x-2-2-2-2-2-x-x-x-x-6-6-6-6-6-x-x-x-x-x-x-x-x-x-x-x-x-x-x|
A|12/2-2-2-2-2-9-9-9-9-2-2-2-2-2-9-9-9-9-6-6-6-6-6-9-9-9-9-7-7-7-6-2-7-7-7-6-2|
E|---------------------0-0-0-0-0---------4-4-4-4-4----------------------------| x2

Gtr 2

e|----------------------------------------------------------------------------|
B|----------------------------------------------------------------------------|
G|---4-4-4-4-4-4-4-4-4--------------------------------------------------------|
D|---4-4-4-4-4-4-4-4-4-2-2-2-2-2-2-2-2-2-6-6-6-6-6-6-6-6-6-2-2-2-2-2-2-2-2-2-2|
A|---2-2-2-2-2-2-2-2-2-2-2-2-2-2-2-2-2-2-6-6-6-6-6-6-6-6-6-2-2-2-2-2-2-2-2-2-2|
E|---------------------0-0-0-0-0-0-0-0-0-4-4-4-4-4-4-4-4-4-0-0-0-0-0-0-0-0-0-0| x2

VERSE

Gtr 1

e|-------------------------------------------------------------------------------|
B|-------------------------------------------------------------------------------|
G|4-----------4---4-4------------------------------------------------------------|
D|4-4-4-4-4-4-4-4-4-4-6-----------6---6-6-4-----------4---4-4-2-----------2---2-2|
A|2-2-2-2-2-2-2-2-2-2-6-6-6-6-6-6-6-6-6-6-4-4-4-4-4-4-4-4-4-4-2-2-2-2-2-2-2-2-2-2|
E|--------------------4-4-4-4-4-4-4-4-4-4-6-6-6-6-6-6-6-6-6-6-0-0-0-0-0-0-0-0-0-0|

PM  _________   _       _________   _       _________   _       _________   _

Grt 2

nothing

PRE CHORUS:

GTR 1 (my favourite part)

e|-------------------------------------------------------|
B|-------------------------------------------------------|
G|3h4p3-3h4p3-3-4-6-4-3-4-3-4-3h4p3-3h4p3-3-4-8-6-4-3-4-3|
D|-----4-----4---------------------4-----4---------------|
A|-------------------------------------------------------|
E|-------------------------------------------------------|

then

e|-------------------------------------------|
B|-------------------------------------------|
G|3h4p3-3h4p3-3-4-6-4-3-4-3-4-8-6-4-6-8-6-8-6|
D|-----4-----4-------------------------------|
A|-------------------------------------------|
E|-------------------------------------------|

Gtr 2

e|--------------------------------------------|
B|--------------------------------------------|
G|4---------------------4---------------------|
D|4----------2----------4----------2----------|
A|2----------2----------2----------2----------|
E|-----------0---------------------0----------| x2

let each chord ring for a while

CHORUS:

GTR 1

e|-------------------------------------------------|
B|-------------------------------------------------|
G|4-4-4-4-11-9-8----11-9-8----11-9-8----9-8-4-9-8-4|
D|4-4-4-4-x--x-x----x--x-x----x--x-x----x-x-x-x-x-x|
A|2-2-2-2-9--7-6----9--7-6----9--7-6----7-6-2-7-6-2|
E|-------------------------------------------------| x2

Gtr 2

e|---------------------------------------------------------------|
B|---------------------------------------------------------------|
G|4-4-4-4-4-4-4-4------------------------------------------------|
D|4-4-4-4-4-4-4-4-6-6-6-6-6-6-6-6-4-4-4-4-4-4-4-4-2-2-2-2-2-2-2-2|
A|2-2-2-2-2-2-2-2-6-6-6-6-6-6-6-6-4-4-4-4-4-4-4-4-2-2-2-2-2-2-2-2|
E|----------------4-4-4-4-4-4-4-4-2-2-2-2-2-2-2-2-0-0-0-0-0-0-0-0|

INTRO

VERSE

PRE CHORUS

CHORUS

BRIDGE:

Gtr 1

e|---------------------------------------------|
B|---------------------------------------------|
G|-5-3-3-3h4p3--5-3-3-3h4p3--5-3-3-3h4p3----4--|
D|------------4------------4------------4------|
A|2--------------------------------------------|
E|-------------4------------2------------0-2---| x3

Gtr 2 when guitar 1 plays the stuff above 3rd time, play this:

e|---------------------------------------------|
B|---------------------------------------------|
G|------------------------------------------4--|
D|4-4-4-4-4-4-4-4-4-4-4-4-4-4-4-4-4-4-4-4...4--|
A|2-2-2-2-2-2-2-2-2-2-2-2-2-2-2-2-2-2-2-2...2--|
E|---------------------------------------------|

PM_______________________________________

the palm muting part is quite fast... listen to the song to know how many times U should 
it

OUTRO:

Gtr 1: it was quite difficult to figure this out and I'm not 100% sure it's correct, but 
sounds good

e|7---------7----------7-------------7---|
B|-9-7-6-7-9-9-7-6-7-9--9-7-6-7-9-7-9----|
G|---------------------------------------|
D|---------------------------------------|
A|---------------------------------------|
E|---------------------------------------| x4

Gtr 2

plays chorus

The song ends on B5 chord


That's it :) Hope U like it. Please rate and comment!!
If U have any questions, write me: Frankie7@post.cz
Related for Alone tab