Song name
# A B C D E F G H I J K L M N O P Q R S T U V W X Y Z

Allister - Scratch tab

-----------------------------------------------------------------------------
Band: Allister - Song: Scratch
-----------------------------------------------------------------------------

Tabbed by: Brian
Arranged by: GasgGuitar
E-Mail: gasgguitar@gmail.com

So the original tab it's pretty good but it has some mistakes though.
There are some minor details like the intro you did not had the Guitar 2
now you do. Also some things that could be added and it could look a
little better so I'm adding some of this stuff and hopefully it would give
you a chance to have a better tab for this song.

So here it goes:

Intro              

Guitar 1
e|---------------------------------------------------| X2
B|---------------------------------------------------|
G|-----------44444444-88888888/1111/1010--66666666---|
D|--44444444-44444444-88888888/1111/1010--66666666---|
A|--44444444-22222222-66666666/9-9-/8-8---44444444---|
E|--22222222-----------------------------------------|

Guitar 2
e|-----------------------------------| This is played
B|--7-7-7-7-7-7-7-7-6-6-6-6-7-7-7-7--| through every
G|-----------------------------------| power chord
D|-----------------------------------|
A|-----------------------------------|
E|-----------------------------------|

Verse

Guitar 1 & Guitar 2
e|-----------------------------------| X2
B|-----------------------------------|
G|---------666666-444444-666666------|
D|--444444-666666-444444-666666------|
A|--444444-444444-222222-444444------|
E|--222222---------------------------|

Pre-Chorus

Guitar 1 & Guitar 2
e|-------------------------------------------------|
B|-------------------------------------------------|
G|--444444-666666-----666-444-44444444-66666666----|
D|--444444-666666-444-666-444-44444444-66666666----|
A|--222222-444444-444-444-222-22222222-44444444----|
E|----------------222------------------------------|

Chorus

Guitar 1 & Guitar 2
e|-----------------------------------------|  X2
B|-----------------------------------------|
G|-----------44444444-88888888-66666666----|
D|--44444444-44444444-88888888-66666666----|
A|--44444444-22222222-66666666-44444444----|
E|--22222222-------------------------------|

Then again the intro but just half of it. Instead of playing it two
times just play it once.

Intro              

Guitar 1
e|---------------------------------------------------|
B|---------------------------------------------------|
G|-----------44444444-88888888-1111-1010--66666666---|
D|--44444444-44444444-88888888-1111-1010--66666666---|
A|--44444444-22222222-66666666-9-9--8-8---44444444---|
E|--22222222-----------------------------------------|

Guitar 2
e|-----------------------------------| This is played
B|--7-7-7-7-7-7-7-7-6-6-6-6-7-7-7-7--| through every
G|-----------------------------------| power chord
D|-----------------------------------|
A|-----------------------------------|
E|-----------------------------------|

Again the Verse, Pre-Chorus and Chorus.

Verse

Guitar 1 & Guitar 2
e|-----------------------------------| X2
B|-----------------------------------|
G|---------666666-444444-666666------|
D|--444444-666666-444444-666666------|
A|--444444-444444-222222-444444------|
E|--222222---------------------------|

Pre-Chorus

Guitar 1 & Guitar 2
e|-------------------------------------------------|
B|-------------------------------------------------|
G|--444444-666666-----666-444-44444444-66666666----|
D|--444444-666666-444-666-444-44444444-66666666----|
A|--222222-444444-444-444-222-22222222-44444444----|
E|----------------222------------------------------|

Chorus

Guitar 1 & Guitar 2
e|-----------------------------------------|  X2
B|-----------------------------------------|
G|-----------44444444-88888888-66666666----|
D|--44444444-44444444-88888888-66666666----|
A|--44444444-22222222-66666666-44444444----|
E|--22222222-------------------------------|

Bridge

Guitar 1 & Guitar 2
e|-----------------------| X2
B|-----------------------|
G|--444-8-666666---------|
D|--444-8-666666---------|
A|--222-6-444444---------|
E|-----------------------|

Guitar 1
e|-----------------------| 
B|-----------------------|
G|--44444444-66666666----|
D|--44444444-66666666----|
A|--22222222-44444444----|
E|-----------------------|

Guitar 2
e|-----------------------------------------------| 
B|-----------------------------------------------|
G|--888888-101010101010-111111111111-131313131313|
D|-----------------------------------------------|
A|--666666-8-8-8-8-8-8--9-9-9-9-9-9--111111111111|
E|-----------------------------------------------|

Pre-Chorus

Guitar 1 & Guitar 2
e|------------------------------------------|  X2
B|------------------------------------------|
G|--88888888-44444444-88888888-66666666-----|
D|--88888888-44444444-88888888-66666666-----|
A|--66666666-22222222-66666666-44444444-----|
E|------------------------------------------|

Pre-Chorus Cont.

e|-----------------------| The only strum that are not
B|-----------------------| palm muted are the first one
G|-4---------6-----------| of each power chord
D|-44444444--66666666----|
A|-22222222--44444444----|
E|-----------------------|
pm  .......   .......

Chorus

Guitar 1 & Guitar 2
e|-----------------------------------------|  X2
B|-----------------------------------------|
G|-----------44444444-88888888-66666666----|
D|--44444444-44444444-88888888-66666666----|
A|--44444444-22222222-66666666-44444444----|
E|--22222222-------------------------------|

Last strum - Let it ring and fade

e|--------|
B|--------|
G|--------|
D|-4------|
A|-4------|
E|-2------|

For any question/request I left my e-mail on the top of the Tab.
Feel free to send me as much spam as you want lol.
Hope you enjoy playing this song as much as I do.
Tap to rate this tab
# A B C D E F G H I J K L M N O P Q R S T U V W X Y Z