Song name
# A B C D E F G H I J K L M N O P Q R S T U V W X Y Z

Allister - Jacob Thinks Im Gay tab

                              JACOB THINKS I'M GAY
                             As recorded by Allister
                 (From the 1999 Album DEAD ENDS AND GIRLFRIENDS)

Music by Allister
Transcribed by Travis Nutt

 Intro
  Q=180
 4/4
  Gtr I
  Wx2          E E S S S S E E S S S S
|------------|-------------------------|
|------------|-------------------------|
|------------|-------------------------|
|------------|-6-6-6-6-6-6-6-6-6-6-6-6-|
|------------|-6-6-6-6-6-6-6-6-6-6-6-6-|
|------------|-4-4-4-4-4-4-4-4-4-4-4-4-|
|
| Gtr II
| Wx2          W
|------------|-------------------------|
|------------|-------------------------|
|------------|-------------------------|
|------------|-------------------------|
|------------|-------------------------|
|------------|-------------------------|


   E. E. Q  E S S S S   E.  E. H        +E
|---------------------|-------------------------|
|---------------------|-------------------------|
|-10--6--8--8-8-8-8-8-|-6--10--8--------(8)-----|
|-10--6--8--8-8-8-8-8-|-6--10--8--------(8)-----|
|--8--4--6--6-6-6-6-6-|-4---8--6--------(6)-----|
|---------------------|-------------------------|
|
|  W                    E.  E. Q  E S S  S  S
|---------------------|-------------------------|
|---------------------|-------------------------|
|---------------------|-6--10--8--8-8-8--8--8---|
|---------------------|-6--10--8--8-8-8--8--8---|
|---------------------|-4---8--6--6-6-6--6--6---|
|---------------------|-------------------------|


 Verse
  $$
  Gtrs I, II
  E E E E E E E E   E E E E E E E E   E E E E E E E E   E E E E E E E E
|-----------------|-----------------|-----------------|-----------------|
|-----------------|-----------------|-----------------|-----------------|
|-----------------|-----------------|-6-6-6-6-6-6-6-6-|-8-8-8-8-8-8-8-8-|
|-6-6-6-6-6-6-6-6-|-3-3-3-3-3-3-3-3-|-6-6-6-6-6-6-6-6-|-8-8-8-8-8-8-8-8-|
|-6-6-6-6-6-6-6-6-|-3-3-3-3-3-3-3-3-|-4-4-4-4-4-4-4-4-|-6-6-6-6-6-6-6-6-|
|-4-4-4-4-4-4-4-4-|-1-1-1-1-1-1-1-1-|-----------------|-----------------|


  E E E E E E E E   E E E E E E E E   E E E E E E E E   E E E E E E E E
|-----------------|-----------------|-----------------|-----------------||
|-----------------|-----------------|-----------------|-----------------||
|-----------------|-----------------|-6-6-6-6-6-6-6-6-|-8-8-8-8-8-8-8-8-||
|-6-6-6-6-6-6-6-6-|-3-3-3-3-3-3-3-3-|-6-6-6-6-6-6-6-6-|-8-8-8-8-8-8-8-8-||
|-6-6-6-6-6-6-6-6-|-3-3-3-3-3-3-3-3-|-4-4-4-4-4-4-4-4-|-6-6-6-6-6-6-6-6-||
|-4-4-4-4-4-4-4-4-|-1-1-1-1-1-1-1-1-|-----------------|-----------------||


 Pre-Chorus
  $
  E E E E E E E E   E E E E E E E E   E E E E E E E E   E E E E E E E E
|-----------------|-----------------|-----------------|-----------------|
|-----------------|-----------------|-----------------|-----------------|
|-6-6-6-6-6-6-6-6-|-3-3-3-3-3-3-3-3-|-6-6-6-6-6-6-6-6-|-8-8-8-8-8-8-8-8-|
|-6-6-6-6-6-6-6-6-|-3-3-3-3-3-3-3-3-|-6-6-6-6-6-6-6-6-|-8-8-8-8-8-8-8-8-|
|-4-4-4-4-4-4-4-4-|-1-1-1-1-1-1-1-1-|-4-4-4-4-4-4-4-4-|-6-6-6-6-6-6-6-6-|
|-----------------|-----------------|-----------------|-----------------|


  E E E E E E E E   E E E E E E E E   E E E E E E E E   E E E E E E E E
|-----------------|-----------------|-----------------|-----------------||
|-----------------|-----------------|-----------------|-----------------||
|-6-6-6-6-6-6-6-6-|-3-3-3-3-3-3-3-3-|-6-6-6-6-6-6-6-6-|-8-8-8-8-8-8-8-8-||
|-6-6-6-6-6-6-6-6-|-3-3-3-3-3-3-3-3-|-6-6-6-6-6-6-6-6-|-8-8-8-8-8-8-8-8-||
|-4-4-4-4-4-4-4-4-|-1-1-1-1-1-1-1-1-|-4-4-4-4-4-4-4-4-|-6-6-6-6-6-6-6-6-||
|-----------------|-----------------|-----------------|-----------------||


 Chorus
  E E E E E E E E   E E E E E E E E   E E E E E E E E   E E E E E E E E
|-----------------|-----------------|-----------------|-----------------|
|-----------------|-----------------|-----------------|-----------------|
|-----------------|-----------------|-6-6-6-6-6-6-6-6-|-8-8-8-8-8-8-8-8-|
|-6-6-6-6-6-6-6-6-|-3-3-3-3-3-3-3-3-|-6-6-6-6-6-6-6-6-|-8-8-8-8-8-8-8-8-|
|-6-6-6-6-6-6-6-6-|-3-3-3-3-3-3-3-3-|-4-4-4-4-4-4-4-4-|-6-6-6-6-6-6-6-6-|
|-4-4-4-4-4-4-4-4-|-1-1-1-1-1-1-1-1-|-----------------|-----------------|


                                                               To Coda
  E E E E E E E E   E E E E E E E E   E E E E E E E E   E E E E E E E E
|-----------------|-----------------|-----------------|-----------------|
|-----------------|-----------------|-----------------|-----------------|
|-----------------|-----------------|-6-6-6-6-6-6-6-6-|-8-8-8-8-8-8-8-8-|
|-6-6-6-6-6-6-6-6-|-3-3-3-3-3-3-3-3-|-6-6-6-6-6-6-6-6-|-8-8-8-8-8-8-8-8-|
|-6-6-6-6-6-6-6-6-|-3-3-3-3-3-3-3-3-|-4-4-4-4-4-4-4-4-|-6-6-6-6-6-6-6-6-|
|-4-4-4-4-4-4-4-4-|-1-1-1-1-1-1-1-1-|-----------------|-----------------|


  E E S S S S E E S S S S    E. E. H    +E
|-------------------------|-----------------|
|-------------------------|-----------------|
|-------------------------|-10--6--8----(8)-|
|-6-6-x-x-x-x-6-6-x-x-x-x-|-10--6--8----(8)-|
|-6-6-x-x-x-x-6-6-x-x-x-x-|--8--4--6----(6)-|
|-4-4-x-x-x-x-4-4-x-x-x-x-|-----------------|


                                  D.S.S.
  E E S S S S E E S S S S    E. E. H    +E
|-------------------------|-----------------||
|-------------------------|-----------------||
|-------------------------|-10--6--8----(8)-||
|-6-6-x-x-x-x-6-6-x-x-x-x-|-10--6--8----(8)-||
|-6-6-x-x-x-x-6-6-x-x-x-x-|--8--4--6----(6)-||
|-4-4-x-x-x-x-4-4-x-x-x-x-|-----------------||


   Bridge
    E E E E E E E E   E E E E E E E E   E E E E E E E E   E E E E E E E E
||------------------|-----------------|-----------------|-------------------||
||o-----------------|-----------------|-----------------|------------------o||
||------------------|-----------------|-6-6-6-6-6-6-6-6-|-8-8-8-8-8-8-8-8---||
||--6-6-6-6-6-6-6-6-|-3-3-3-3-3-3-3-3-|-6-6-6-6-6-6-6-6-|-8-8-8-8-8-8-8-8---||
||o-6-6-6-6-6-6-6-6-|-3-3-3-3-3-3-3-3-|-4-4-4-4-4-4-4-4-|-6-6-6-6-6-6-6-6--o||
||--4-4-4-4-4-4-4-4-|-1-1-1-1-1-1-1-1-|-----------------|-------------------||


  E H..         Wx3
|-------------|--------|
|-------------|--------|
|-------------|--------|
|-6-----------|--------|
|-6-----------|--------|
|-4-----------|--------|


                                                          D.S. al Coda
  E E E E E E E E   E E E E E E E E   E E E E E E E E   E E E E E E E E
|-----------------|-----------------|-----------------|-----------------|
|-----------------|-----------------|-----------------|-----------------|
|-----------------|-----------------|-6-6-6-6-6-6-6-6-|-8-8-8-8-8-8-8-8-|
|-6-6-6-6-6-6-6-6-|-3-3-3-3-3-3-3-3-|-6-6-6-6-6-6-6-6-|-8-8-8-8-8-8-8-8-|
|-6-6-6-6-6-6-6-6-|-3-3-3-3-3-3-3-3-|-4-4-4-4-4-4-4-4-|-6-6-6-6-6-6-6-6-|
|-4-4-4-4-4-4-4-4-|-1-1-1-1-1-1-1-1-|-----------------|-----------------|


   Out-Chorus
    &
    E E E E E E E E   E E E E E E E E   E E E E E E E E   E E E E E E E E   4x
||------------------|-----------------|-----------------|-------------------||
||o-----------------|-----------------|-----------------|------------------o||
||------------------|-----------------|-6-6-6-6-6-6-6-6-|-8-8-8-8-8-8-8-8---||
||--6-6-6-6-6-6-6-6-|-3-3-3-3-3-3-3-3-|-6-6-6-6-6-6-6-6-|-8-8-8-8-8-8-8-8---||
||o-6-6-6-6-6-6-6-6-|-3-3-3-3-3-3-3-3-|-4-4-4-4-4-4-4-4-|-6-6-6-6-6-6-6-6--o||
||--4-4-4-4-4-4-4-4-|-1-1-1-1-1-1-1-1-|-----------------|-------------------||


  E E S S S S E E S S S S   E. E. E H
|-------------------------|--------------*|
|-------------------------|--------------*|
|-------------------------|-6------------*|
|-6-6-x-x-x-x-6-6-x-x-x-x-|-6--4--6------*|
|-6-6-x-x-x-x-6-6-x-x-x-x-|-4--4--6------*|
|-4-4-x-x-x-x-4-4-x-x-x-x-|----2--4------*|

Tap to rate this tab
# A B C D E F G H I J K L M N O P Q R S T U V W X Y Z