Song name
# A B C D E F G H I J K L M N O P Q R S T U V W X Y Z

Allister - Fraggle Rawk tab

Help us improve GuitareTab! Take a short survey!
-------------------------------------------------------------------------------
			     FRAGGLE RAWK - Allister
-------------------------------------------------------------------------------
Tabbed by: Revenant311

Tuning: Standard

Intro/Fill:
e|----------------------------------------------------5-6-7\-|
B|------------------6-6-6----6~----5-7---10p7-5---8-8--------|
G|-----5---8p7-5-----------7-----7-----7--------7------------|
D|-5-7---7-------7-------------------------------------------|
A|-----------------------------------------------------------|
E|-----------------------------------------------------------|

Verse:
e|-----------------|
B|-----------------|
G|-3-3---------3-3-|
D|-5-5-1---3-3-5-5-|
A|-5-5-3---5-5-5-5-|
E|-----3---5-5-----|

That's really about it.  When it gets to the punk rock part, it's just a slight 
on the verse, figure it out on your own.
Related for Fraggle Rawk tab