Song name
# A B C D E F G H I J K L M N O P Q R S T U V W X Y Z

Allister - Know It All tab

Allister - Know It All
By:Andrew Mcshan (Guitarguyx182@aol.com)

Intro
e|---------------------------------------------------------------------------|
B|---------------------------------------------------------------------------|
G|-7-------7-----------------------------------------------------------------|
D|-7-5-7-5-7---x2------------------------------------------------------------|
A|-5-5-7-5-5-----------------------------------------------------------------|
E|---3-5-3-------------------------------------------------------------------|
Verse
e|---------------------------------------------------------------------------|
B|---------------------------------------------------------------------------|
G|-7-----7-------------------------------------------------------------------|
D|-7-7-5-7---x2--------------------------------------------------------------|
A|-5-7-5-5-------------------------------------------------------------------|
E|---5-3---------------------------------------------------------------------|
Chorus
e|---------------------------------------------------------------------------|
B|---------------------------------------------------------------------------|
G|------7-----7--------------------------------------------------------------|
D|-5-7--7-7-5-7-7--5--7------------------------------------------------------|
A|-5-7--5-7-5-5-7--5--7------------------------------------------------------|
E|-3-5----5-3---5--3--5------------------------------------------------------|

e|---------------------------------------------------------------------------|
B|---------------------------------------------------------------------------|
G|-7-------7-----------------------------------------------------------------|
D|-7-5-7-5-7---x2------------------------------------------------------------|
A|-5-5-7-5-5-----------------------------------------------------------------|
E|---3-5-3-------------------------------------------------------------------|

e|-10/12-12/10-------10/12-12-12^--------------------------------------------|
B|--------------10-12--------------------------------------------------------|
G|---------------------------------------------------------------------------|
D|---------------------------------------------------------------------------|
A|---------------------------------------------------------------------------|
E|---------------------------------------------------------------------------|
Bridge
e|---------------------------------------------------------------------------|
B|---------------------------------------------------------------------------|
G|---------------------------------------------------------------------------|
D|--5--7--5--7--5--7---------------------------------------------------------|
A|--5--7--5--7--5--7---------------------------------------------------------|
E|--3--5--3--5--3--5---------------------------------------------------------|
                Pm....
Tap to rate this tab
# A B C D E F G H I J K L M N O P Q R S T U V W X Y Z