Song name
# A B C D E F G H I J K L M N O P Q R S T U V W X Y Z

Allister - None Of My Friends Are Punks tab

Allister - None of my Friends are Punks
By:Andrew Mcshan(Guitarguyx182@aol.com)

e|---------------------------------------------------------------------------|
B|---------------------------------------------------------------------------|
G|-4-------------------------------------------------------------------------|
D|-4-2-4---------------------------------------------------------------------|
A|-2-2-4---------------------------------------------------------------------|
E|---0-2---------------------------------------------------------------------|

Then the other part

e|---------------------------------------------------------------------------|
B|---------------------------------------------------------------------------|
G|-4-----4----4---4----------------------------------------------------------|
D|-4-2-4-4--2-4-4-4----------------------------------------------------------|
A|-2-2-4-2--2-2-4-2----------------------------------------------------------|
E|---0-2----0---2------------------------------------------------------------|

Then he goes an step higher

e|---------------------------------------------------------------------------|
B|---------------------------------------------------------------------------|
G|-----11-13------11---13------11------11------------------------------------|
D|-11--11-13--11--11---13--11--11--11--11--11--------------------------------|
A|-11--9--11--11--9----11--11--9---11--9---11--------------------------------|
E|-9----------9------------9-------9-------9---------------------------------|
                           Pm..........

Then it goes back to regular verse

then the higher verse again
Tap to rate this tab
# A B C D E F G H I J K L M N O P Q R S T U V W X Y Z